ISO-10303-21;
HEADER;
FILE_DESCRIPTION (( 'STEP AP214' ),
    '1' );
FILE_NAME ('400019.STEP',
    '2019-08-21T05:57:06',
    ( '' ),
    ( '' ),
    'SwSTEP 2.0',
    'SolidWorks 2016',
    '' );
FILE_SCHEMA (( 'AUTOMOTIVE_DESIGN' ));
ENDSEC;

DATA;
#1 = CARTESIAN_POINT ( 'NONE',  ( 4.880606430838128100, 65.23355492641215400, 0.0000000000000000000 ) ) ;
#2 = CIRCLE ( 'NONE', #170, 12.70000000000000300 ) ;
#3 = ORIENTED_EDGE ( 'NONE', *, *, #123, .F. ) ;
#4 = CARTESIAN_POINT ( 'NONE',  ( 115.7736064308381300, 65.23355492641219700, 0.0000000000000000000 ) ) ;
#5 = EDGE_CURVE ( 'NONE', #143, #99, #114, .T. ) ;
#6 = FACE_OUTER_BOUND ( 'NONE', #150, .T. ) ;
#7 = FILL_AREA_STYLE ('',( #147 ) ) ;
#8 = PLANE ( 'NONE',  #81 ) ;
#9 =( NAMED_UNIT ( * ) PLANE_ANGLE_UNIT ( ) SI_UNIT ( $, .RADIAN. ) );
#10 = FACE_OUTER_BOUND ( 'NONE', #183, .T. ) ;
#11 = VERTEX_POINT ( 'NONE', #156 ) ;
#12 = DIRECTION ( 'NONE',  ( 0.0000000000000000000, 0.0000000000000000000, 1.000000000000000000 ) ) ;
#13 = AXIS2_PLACEMENT_3D ( 'NONE', #160, #155, #169 ) ;
#14 = STYLED_ITEM ( 'NONE', ( #139 ), #125 ) ;
#15 = DIRECTION ( 'NONE',  ( -1.000000000000000000, -0.0000000000000000000, -0.0000000000000000000 ) ) ;
#16 = CARTESIAN_POINT ( 'NONE',  ( 110.1653732284884500, 65.23355492641219700, -12.70000000000000300 ) ) ;
#17 = CARTESIAN_POINT ( 'NONE',  ( 4.880606430838128100, 65.23355492641215400, 0.0000000000000000000 ) ) ;
#18 = APPLICATION_PROTOCOL_DEFINITION ( 'draft international standard', 'automotive_design', 1998, #105 ) ;
#19 = PRODUCT_CONTEXT ( 'NONE', #182, 'mechanical' ) ;
#20 = AXIS2_PLACEMENT_3D ( 'NONE', #77, #148, #76 ) ;
#21 = CIRCLE ( 'NONE', #20, 12.70000000000000300 ) ;
#22 = AXIS2_PLACEMENT_3D ( 'NONE', #4, #15, #43 ) ;
#23 = ADVANCED_FACE ( 'NONE', ( #10 ), #152, .T. ) ;
#24 = ORIENTED_EDGE ( 'NONE', *, *, #166, .F. ) ;
#25 = DIRECTION ( 'NONE',  ( -0.0000000000000000000, 0.0000000000000000000, -1.000000000000000000 ) ) ;
#26 = COLOUR_RGB ( '',1.000000000000000000, 1.000000000000000000, 1.000000000000000000 ) ;
#27 = ORIENTED_EDGE ( 'NONE', *, *, #5, .F. ) ;
#28 = CARTESIAN_POINT ( 'NONE',  ( 110.1653732284884500, 65.23355492641219700, 0.0000000000000000000 ) ) ;
#29 = DIRECTION ( 'NONE',  ( 1.000000000000000000, 0.0000000000000000000, 0.0000000000000000000 ) ) ;
#30 = EDGE_CURVE ( 'NONE', #66, #80, #140, .T. ) ;
#31 = DIRECTION ( 'NONE',  ( -1.000000000000000000, -0.0000000000000000000, -0.0000000000000000000 ) ) ;
#32 = ORIENTED_EDGE ( 'NONE', *, *, #166, .T. ) ;
#33 = CARTESIAN_POINT ( 'NONE',  ( 115.7736064308381300, 65.23355492641219700, 0.0000000000000000000 ) ) ;
#34 = FILL_AREA_STYLE_COLOUR ( '', #95 ) ;
#35 = PRODUCT ( '400019', '400019', '', ( #19 ) ) ;
#36 =( NAMED_UNIT ( * ) SI_UNIT ( $, .STERADIAN. ) SOLID_ANGLE_UNIT ( ) );
#37 = PRESENTATION_LAYER_ASSIGNMENT (  '', '', ( #120 ) ) ;
#38 = FACE_OUTER_BOUND ( 'NONE', #75, .T. ) ;
#39 = EDGE_LOOP ( 'NONE', ( #158, #186 ) ) ;
#40 = FACE_OUTER_BOUND ( 'NONE', #45, .T. ) ;
#41 = ORIENTED_EDGE ( 'NONE', *, *, #124, .F. ) ;
#42 = AXIS2_PLACEMENT_3D ( 'NONE', #28, #129, #112 ) ;
#43 = DIRECTION ( 'NONE',  ( 0.0000000000000000000, 0.0000000000000000000, 1.000000000000000000 ) ) ;
#44 = DIRECTION ( 'NONE',  ( 0.0000000000000000000, 0.0000000000000000000, 1.000000000000000000 ) ) ;
#45 = EDGE_LOOP ( 'NONE', ( #82, #49, #84, #177, #107 ) ) ;
#46 = AXIS2_PLACEMENT_3D ( 'NONE', #1, #25, #67 ) ;
#47 = CARTESIAN_POINT ( 'NONE',  ( 110.1653732284884500, 65.23355492641219700, 12.70000000000000300 ) ) ;
#48 = DIRECTION ( 'NONE',  ( 0.0000000000000000000, 0.0000000000000000000, 1.000000000000000000 ) ) ;
#49 = ORIENTED_EDGE ( 'NONE', *, *, #5, .T. ) ;
#50 = CARTESIAN_POINT ( 'NONE',  ( 119.4836064308381400, 65.23355492641216800, 0.0000000000000000000 ) ) ;
#51 =( NAMED_UNIT ( * ) PLANE_ANGLE_UNIT ( ) SI_UNIT ( $, .RADIAN. ) );
#52 = CIRCLE ( 'NONE', #68, 12.70000000000000300 ) ;
#53 = CARTESIAN_POINT ( 'NONE',  ( 115.7736064308381300, 65.23355492641219700, -12.70000000000000300 ) ) ;
#54 = ADVANCED_FACE ( 'NONE', ( #6 ), #71, .T. ) ;
#55 = DIRECTION ( 'NONE',  ( -1.000000000000000000, -0.0000000000000000000, -0.0000000000000000000 ) ) ;
#56 = CIRCLE ( 'NONE', #154, 12.70000000000000300 ) ;
#57 = CARTESIAN_POINT ( 'NONE',  ( 118.7777425186256900, 65.23355492641219700, -12.70000000000000300 ) ) ;
#58 = DIRECTION ( 'NONE',  ( 0.0000000000000000000, 1.000000000000000000, 1.224646799147353500E-016 ) ) ;
#59 = SURFACE_STYLE_USAGE ( .BOTH. , #118 ) ;
#60 = AXIS2_PLACEMENT_3D ( 'NONE', #17, #175, #86 ) ;
#61 = ORIENTED_EDGE ( 'NONE', *, *, #108, .T. ) ;
#62 = ORIENTED_EDGE ( 'NONE', *, *, #123, .T. ) ;
#63 =( GEOMETRIC_REPRESENTATION_CONTEXT ( 3 ) GLOBAL_UNCERTAINTY_ASSIGNED_CONTEXT ( ( #167 ) ) GLOBAL_UNIT_ASSIGNED_CONTEXT ( ( #136, #9, #36 ) ) REPRESENTATION_CONTEXT ( 'NONE', 'WORKASPACE' ) );
#64 = ADVANCED_FACE ( 'NONE', ( #40 ), #141, .T. ) ;
#65 = AXIS2_PLACEMENT_3D ( 'NONE', #178, #12, #180 ) ;
#66 = VERTEX_POINT ( 'NONE', #127 ) ;
#67 = DIRECTION ( 'NONE',  ( 0.0000000000000000000, 1.000000000000000000, 0.0000000000000000000 ) ) ;
#68 = AXIS2_PLACEMENT_3D ( 'NONE', #131, #87, #102 ) ;
#69 = SURFACE_SIDE_STYLE ('',( #185 ) ) ;
#70 = CARTESIAN_POINT ( 'NONE',  ( 118.7777425186256900, 65.23355492641219700, 0.0000000000000000000 ) ) ;
#71 = SPHERICAL_SURFACE ( 'NONE', #46, 114.6030000000000100 ) ;
#72 = DIRECTION ( 'NONE',  ( -1.000000000000000000, -0.0000000000000000000, -0.0000000000000000000 ) ) ;
#73 = PRODUCT_DEFINITION_CONTEXT ( 'detailed design', #105, 'design' ) ;
#74 = LINE ( 'NONE', #16, #149 ) ;
#75 = EDGE_LOOP ( 'NONE', ( #89, #61, #172, #122, #32 ) ) ;
#76 = DIRECTION ( 'NONE',  ( 0.0000000000000000000, 0.0000000000000000000, 1.000000000000000000 ) ) ;
#77 = CARTESIAN_POINT ( 'NONE',  ( 118.7777425186256900, 65.23355492641219700, 0.0000000000000000000 ) ) ;
#78 = ORIENTED_EDGE ( 'NONE', *, *, #146, .F. ) ;
#79 = SURFACE_STYLE_FILL_AREA ( #119 ) ;
#80 = VERTEX_POINT ( 'NONE', #53 ) ;
#81 = AXIS2_PLACEMENT_3D ( 'NONE', #117, #29, #162 ) ;
#82 = ORIENTED_EDGE ( 'NONE', *, *, #108, .F. ) ;
#83 = EDGE_CURVE ( 'NONE', #104, #66, #109, .T. ) ;
#84 = ORIENTED_EDGE ( 'NONE', *, *, #101, .T. ) ;
#85 = PRODUCT_DEFINITION_FORMATION_WITH_SPECIFIED_SOURCE ( 'ÈÎºÎ', '', #35, .NOT_KNOWN. ) ;
#86 = DIRECTION ( 'NONE',  ( 1.000000000000000000, 0.0000000000000000000, 0.0000000000000000000 ) ) ;
#87 = DIRECTION ( 'NONE',  ( -1.000000000000000000, -0.0000000000000000000, -0.0000000000000000000 ) ) ;
#88 = CIRCLE ( 'NONE', #60, 114.6030000000000100 ) ;
#89 = ORIENTED_EDGE ( 'NONE', *, *, #146, .T. ) ;
#90 = APPLICATION_PROTOCOL_DEFINITION ( 'draft international standard', 'automotive_design', 1998, #182 ) ;
#91 =( LENGTH_UNIT ( ) NAMED_UNIT ( * ) SI_UNIT ( .MILLI., .METRE. ) );
#92 =( NAMED_UNIT ( * ) PLANE_ANGLE_UNIT ( ) SI_UNIT ( $, .RADIAN. ) );
#93 = UNCERTAINTY_MEASURE_WITH_UNIT (LENGTH_MEASURE( 1.000000000000000100E-005 ), #173, 'distance_accuracy_value', 'NONE');
#94 = PRODUCT_RELATED_PRODUCT_CATEGORY ( 'part', '', ( #35 ) ) ;
#95 = COLOUR_RGB ( '',1.000000000000000000, 1.000000000000000000, 1.000000000000000000 ) ;
#96 = DIRECTION ( 'NONE',  ( 0.0000000000000000000, 1.000000000000000000, 0.0000000000000000000 ) ) ;
#97 = DIRECTION ( 'NONE',  ( -1.000000000000000000, -0.0000000000000000000, -0.0000000000000000000 ) ) ;
#98 = ADVANCED_FACE ( 'NONE', ( #38 ), #157, .T. ) ;
#99 = VERTEX_POINT ( 'NONE', #159 ) ;
#100 = SURFACE_STYLE_USAGE ( .BOTH. , #69 ) ;
#101 = EDGE_CURVE ( 'NONE', #99, #104, #2, .T. ) ;
#102 = DIRECTION ( 'NONE',  ( 0.0000000000000000000, 0.0000000000000000000, 1.000000000000000000 ) ) ;
#103 = VERTEX_POINT ( 'NONE', #50 ) ;
#104 = VERTEX_POINT ( 'NONE', #174 ) ;
#105 = APPLICATION_CONTEXT ( 'automotive_design' ) ;
#106 = CLOSED_SHELL ( 'NONE', ( #98, #23, #54, #64, #128 ) ) ;
#107 = ORIENTED_EDGE ( 'NONE', *, *, #115, .F. ) ;
#108 = EDGE_CURVE ( 'NONE', #143, #80, #74, .T. ) ;
#109 = LINE ( 'NONE', #47, #171 ) ;
#110 = DIRECTION ( 'NONE',  ( -0.0000000000000000000, 0.0000000000000000000, -1.000000000000000000 ) ) ;
#111 = DIRECTION ( 'NONE',  ( -1.000000000000000000, -0.0000000000000000000, -0.0000000000000000000 ) ) ;
#112 = DIRECTION ( 'NONE',  ( 0.0000000000000000000, 0.0000000000000000000, 1.000000000000000000 ) ) ;
#113 = ORIENTED_EDGE ( 'NONE', *, *, #124, .T. ) ;
#114 = CIRCLE ( 'NONE', #13, 12.70000000000000300 ) ;
#115 = EDGE_CURVE ( 'NONE', #80, #66, #56, .T. ) ;
#116 = DIRECTION ( 'NONE',  ( 0.0000000000000000000, 1.224646799147353200E-016, -1.000000000000000000 ) ) ;
#117 = CARTESIAN_POINT ( 'NONE',  ( 115.7736064308381300, 65.23355492641219700, 0.0000000000000000000 ) ) ;
#118 = SURFACE_SIDE_STYLE ('',( #79 ) ) ;
#119 = FILL_AREA_STYLE ('',( #34 ) ) ;
#120 = STYLED_ITEM ( 'NONE', ( #176 ), #163 ) ;
#121 = SHAPE_DEFINITION_REPRESENTATION ( #181, #125 ) ;
#122 = ORIENTED_EDGE ( 'NONE', *, *, #83, .F. ) ;
#123 = EDGE_CURVE ( 'NONE', #103, #99, #130, .T. ) ;
#124 = EDGE_CURVE ( 'NONE', #103, #11, #88, .T. ) ;
#125 = ADVANCED_BREP_SHAPE_REPRESENTATION ( '400019', ( #163, #65 ), #132 ) ;
#126 = CARTESIAN_POINT ( 'NONE',  ( 110.1653732284884500, 65.23355492641219700, 0.0000000000000000000 ) ) ;
#127 = CARTESIAN_POINT ( 'NONE',  ( 115.7736064308381300, 65.23355492641219700, 12.70000000000000300 ) ) ;
#128 = ADVANCED_FACE ( 'NONE', ( #145 ), #8, .F. ) ;
#129 = DIRECTION ( 'NONE',  ( -1.000000000000000000, -0.0000000000000000000, -0.0000000000000000000 ) ) ;
#130 = CIRCLE ( 'NONE', #184, 114.6029999999999900 ) ;
#131 = CARTESIAN_POINT ( 'NONE',  ( 118.7777425186256900, 65.23355492641219700, 0.0000000000000000000 ) ) ;
#132 =( GEOMETRIC_REPRESENTATION_CONTEXT ( 3 ) GLOBAL_UNCERTAINTY_ASSIGNED_CONTEXT ( ( #133 ) ) GLOBAL_UNIT_ASSIGNED_CONTEXT ( ( #91, #92, #151 ) ) REPRESENTATION_CONTEXT ( 'NONE', 'WORKASPACE' ) );
#133 = UNCERTAINTY_MEASURE_WITH_UNIT (LENGTH_MEASURE( 1.000000000000000100E-005 ), #91, 'distance_accuracy_value', 'NONE');
#134 =( NAMED_UNIT ( * ) SI_UNIT ( $, .STERADIAN. ) SOLID_ANGLE_UNIT ( ) );
#135 = ORIENTED_EDGE ( 'NONE', *, *, #101, .F. ) ;
#136 =( LENGTH_UNIT ( ) NAMED_UNIT ( * ) SI_UNIT ( .MILLI., .METRE. ) );
#137 = MECHANICAL_DESIGN_GEOMETRIC_PRESENTATION_REPRESENTATION (  '', ( #14 ), #63 ) ;
#138 = AXIS2_PLACEMENT_3D ( 'NONE', #126, #55, #44 ) ;
#139 = PRESENTATION_STYLE_ASSIGNMENT (( #59 ) ) ;
#140 = CIRCLE ( 'NONE', #22, 12.70000000000000300 ) ;
#141 = CYLINDRICAL_SURFACE ( 'NONE', #42, 12.70000000000000300 ) ;
#142 =( GEOMETRIC_REPRESENTATION_CONTEXT ( 3 ) GLOBAL_UNCERTAINTY_ASSIGNED_CONTEXT ( ( #93 ) ) GLOBAL_UNIT_ASSIGNED_CONTEXT ( ( #173, #51, #134 ) ) REPRESENTATION_CONTEXT ( 'NONE', 'WORKASPACE' ) );
#143 = VERTEX_POINT ( 'NONE', #57 ) ;
#144 = AXIS2_PLACEMENT_3D ( 'NONE', #161, #110, #96 ) ;
#145 = FACE_OUTER_BOUND ( 'NONE', #39, .T. ) ;
#146 = EDGE_CURVE ( 'NONE', #11, #143, #52, .T. ) ;
#147 = FILL_AREA_STYLE_COLOUR ( '', #26 ) ;
#148 = DIRECTION ( 'NONE',  ( -1.000000000000000000, -0.0000000000000000000, -0.0000000000000000000 ) ) ;
#149 = VECTOR ( 'NONE', #72, 1000.000000000000000 ) ;
#150 = EDGE_LOOP ( 'NONE', ( #3, #113, #24, #135 ) ) ;
#151 =( NAMED_UNIT ( * ) SI_UNIT ( $, .STERADIAN. ) SOLID_ANGLE_UNIT ( ) );
#152 = SPHERICAL_SURFACE ( 'NONE', #144, 114.6030000000000100 ) ;
#153 = PRODUCT_DEFINITION ( 'Î´Öª', '', #85, #73 ) ;
#154 = AXIS2_PLACEMENT_3D ( 'NONE', #33, #31, #48 ) ;
#155 = DIRECTION ( 'NONE',  ( -1.000000000000000000, -0.0000000000000000000, -0.0000000000000000000 ) ) ;
#156 = CARTESIAN_POINT ( 'NONE',  ( 118.7777425186256900, 77.93355492641221400, 0.0000000000000000000 ) ) ;
#157 = CYLINDRICAL_SURFACE ( 'NONE', #138, 12.70000000000000300 ) ;
#158 = ORIENTED_EDGE ( 'NONE', *, *, #30, .T. ) ;
#159 = CARTESIAN_POINT ( 'NONE',  ( 118.7777425186256900, 52.53355492641214400, -1.555301434917140000E-015 ) ) ;
#160 = CARTESIAN_POINT ( 'NONE',  ( 118.7777425186256900, 65.23355492641219700, 0.0000000000000000000 ) ) ;
#161 = CARTESIAN_POINT ( 'NONE',  ( 4.880606430838128100, 65.23355492641215400, 0.0000000000000000000 ) ) ;
#162 = DIRECTION ( 'NONE',  ( 0.0000000000000000000, 0.0000000000000000000, -1.000000000000000000 ) ) ;
#163 = MANIFOLD_SOLID_BREP ( 'Ðý×ª1', #106 ) ;
#164 = PRESENTATION_LAYER_ASSIGNMENT (  '', '', ( #14 ) ) ;
#165 = DIRECTION ( 'NONE',  ( 0.0000000000000000000, 0.0000000000000000000, 1.000000000000000000 ) ) ;
#166 = EDGE_CURVE ( 'NONE', #104, #11, #21, .T. ) ;
#167 = UNCERTAINTY_MEASURE_WITH_UNIT (LENGTH_MEASURE( 1.000000000000000100E-005 ), #136, 'distance_accuracy_value', 'NONE');
#168 = MECHANICAL_DESIGN_GEOMETRIC_PRESENTATION_REPRESENTATION (  '', ( #120 ), #142 ) ;
#169 = DIRECTION ( 'NONE',  ( 0.0000000000000000000, 0.0000000000000000000, 1.000000000000000000 ) ) ;
#170 = AXIS2_PLACEMENT_3D ( 'NONE', #70, #97, #165 ) ;
#171 = VECTOR ( 'NONE', #111, 1000.000000000000000 ) ;
#172 = ORIENTED_EDGE ( 'NONE', *, *, #30, .F. ) ;
#173 =( LENGTH_UNIT ( ) NAMED_UNIT ( * ) SI_UNIT ( .MILLI., .METRE. ) );
#174 = CARTESIAN_POINT ( 'NONE',  ( 118.7777425186256900, 65.23355492641219700, 12.70000000000000300 ) ) ;
#175 = DIRECTION ( 'NONE',  ( -0.0000000000000000000, 0.0000000000000000000, 1.000000000000000000 ) ) ;
#176 = PRESENTATION_STYLE_ASSIGNMENT (( #100 ) ) ;
#177 = ORIENTED_EDGE ( 'NONE', *, *, #83, .T. ) ;
#178 = CARTESIAN_POINT ( 'NONE',  ( 0.0000000000000000000, 0.0000000000000000000, 0.0000000000000000000 ) ) ;
#179 = CARTESIAN_POINT ( 'NONE',  ( 4.880606430838128100, 65.23355492641215400, 0.0000000000000000000 ) ) ;
#180 = DIRECTION ( 'NONE',  ( 1.000000000000000000, 0.0000000000000000000, 0.0000000000000000000 ) ) ;
#181 = PRODUCT_DEFINITION_SHAPE ( 'NONE', 'NONE',  #153 ) ;
#182 = APPLICATION_CONTEXT ( 'automotive_design' ) ;
#183 = EDGE_LOOP ( 'NONE', ( #41, #62, #27, #78 ) ) ;
#184 = AXIS2_PLACEMENT_3D ( 'NONE', #179, #116, #58 ) ;
#185 = SURFACE_STYLE_FILL_AREA ( #7 ) ;
#186 = ORIENTED_EDGE ( 'NONE', *, *, #115, .T. ) ;
ENDSEC;
END-ISO-10303-21;
