ISO-10303-21;
HEADER;
FILE_DESCRIPTION (( 'STEP AP214' ),
    '1' );
FILE_NAME ('432532.STEP',
    '2019-08-28T03:26:27',
    ( 'user' ),
    ( 'Î¢ÈíÖÐ¹ú' ),
    'SwSTEP 2.0',
    'SolidWorks 2016',
    '' );
FILE_SCHEMA (( 'AUTOMOTIVE_DESIGN' ));
ENDSEC;

DATA;
#1 = VECTOR ( 'NONE', #13, 1000.000000000000000 ) ;
#2 = CARTESIAN_POINT ( 'NONE',  ( 0.0000000000000000000, 0.0000000000000000000, 0.0000000000000000000 ) ) ;
#3 = APPLICATION_PROTOCOL_DEFINITION ( 'draft international standard', 'automotive_design', 1998, #145 ) ;
#4 = CIRCLE ( 'NONE', #58, 25.40000000000011200 ) ;
#5 = DIRECTION ( 'NONE',  ( 0.0000000000000000000, 0.0000000000000000000, 1.000000000000000000 ) ) ;
#6 = DIRECTION ( 'NONE',  ( 0.0000000000000000000, 1.000000000000000000, 0.0000000000000000000 ) ) ;
#7 = UNCERTAINTY_MEASURE_WITH_UNIT (LENGTH_MEASURE( 1.000000000000000100E-005 ), #154, 'distance_accuracy_value', 'NONE');
#8 = EDGE_CURVE ( 'NONE', #137, #50, #4, .T. ) ;
#9 = CIRCLE ( 'NONE', #65, 500.0000000000000000 ) ;
#10 = FACE_OUTER_BOUND ( 'NONE', #36, .T. ) ;
#11 = CARTESIAN_POINT ( 'NONE',  ( 9.525576769365162700, 0.0000000000000000000, 0.0000000000000000000 ) ) ;
#12 = DIRECTION ( 'NONE',  ( 0.0000000000000000000, -1.000000000000000000, 0.0000000000000000000 ) ) ;
#13 = DIRECTION ( 'NONE',  ( -1.000000000000000000, -0.0000000000000000000, -0.0000000000000000000 ) ) ;
#14 = DIRECTION ( 'NONE',  ( 0.0000000000000000000, 0.0000000000000000000, 1.000000000000000000 ) ) ;
#15 =( LENGTH_UNIT ( ) NAMED_UNIT ( * ) SI_UNIT ( .MILLI., .METRE. ) );
#16 =( NAMED_UNIT ( * ) SI_UNIT ( $, .STERADIAN. ) SOLID_ANGLE_UNIT ( ) );
#17 = PRESENTATION_STYLE_ASSIGNMENT (( #117 ) ) ;
#18 = EDGE_CURVE ( 'NONE', #137, #164, #9, .T. ) ;
#19 = ADVANCED_BREP_SHAPE_REPRESENTATION ( '432532', ( #161, #139 ), #141 ) ;
#20 = SURFACE_SIDE_STYLE ('',( #30 ) ) ;
#21 = CARTESIAN_POINT ( 'NONE',  ( 508.8800000000000000, 0.0000000000000000000, 0.0000000000000000000 ) ) ;
#22 = CYLINDRICAL_SURFACE ( 'NONE', #95, 25.40000000000005500 ) ;
#23 = DIRECTION ( 'NONE',  ( 0.0000000000000000000, 0.0000000000000000000, -1.000000000000000000 ) ) ;
#24 = ORIENTED_EDGE ( 'NONE', *, *, #52, .T. ) ;
#25 = DIRECTION ( 'NONE',  ( -1.000000000000000000, -0.0000000000000000000, -0.0000000000000000000 ) ) ;
#26 =( NAMED_UNIT ( * ) SI_UNIT ( $, .STERADIAN. ) SOLID_ANGLE_UNIT ( ) );
#27 = EDGE_CURVE ( 'NONE', #50, #164, #123, .T. ) ;
#28 = ORIENTED_EDGE ( 'NONE', *, *, #45, .T. ) ;
#29 = ORIENTED_EDGE ( 'NONE', *, *, #52, .F. ) ;
#30 = SURFACE_STYLE_FILL_AREA ( #149 ) ;
#31 = DIRECTION ( 'NONE',  ( 1.000000000000000000, 0.0000000000000000000, 0.0000000000000000000 ) ) ;
#32 = DIRECTION ( 'NONE',  ( 0.0000000000000000000, 0.0000000000000000000, 1.000000000000000000 ) ) ;
#33 = AXIS2_PLACEMENT_3D ( 'NONE', #47, #103, #116 ) ;
#34 = EDGE_CURVE ( 'NONE', #50, #137, #42, .T. ) ;
#35 = ADVANCED_FACE ( 'NONE', ( #68 ), #46, .F. ) ;
#36 = EDGE_LOOP ( 'NONE', ( #87, #28 ) ) ;
#37 = CARTESIAN_POINT ( 'NONE',  ( 9.525576769365162700, 3.110602869834324600E-015, -25.40000000000038600 ) ) ;
#38 = DIRECTION ( 'NONE',  ( 0.0000000000000000000, -1.224646799147353200E-016, 1.000000000000000000 ) ) ;
#39 = CYLINDRICAL_SURFACE ( 'NONE', #88, 25.40000000000005500 ) ;
#40 =( LENGTH_UNIT ( ) NAMED_UNIT ( * ) SI_UNIT ( .MILLI., .METRE. ) );
#41 = EDGE_LOOP ( 'NONE', ( #128, #120, #119 ) ) ;
#42 = CIRCLE ( 'NONE', #33, 25.40000000000011200 ) ;
#43 = DIRECTION ( 'NONE',  ( 0.0000000000000000000, 1.000000000000000000, 0.0000000000000000000 ) ) ;
#44 = AXIS2_PLACEMENT_3D ( 'NONE', #66, #165, #98 ) ;
#45 = EDGE_CURVE ( 'NONE', #62, #109, #99, .T. ) ;
#46 = SPHERICAL_SURFACE ( 'NONE', #51, 500.0000000000000000 ) ;
#47 = CARTESIAN_POINT ( 'NONE',  ( 9.525576769365162700, 0.0000000000000000000, 0.0000000000000000000 ) ) ;
#48 = UNCERTAINTY_MEASURE_WITH_UNIT (LENGTH_MEASURE( 1.000000000000000100E-005 ), #40, 'distance_accuracy_value', 'NONE');
#49 = ORIENTED_EDGE ( 'NONE', *, *, #8, .F. ) ;
#50 = VERTEX_POINT ( 'NONE', #70 ) ;
#51 = AXIS2_PLACEMENT_3D ( 'NONE', #53, #6, #5 ) ;
#52 = EDGE_CURVE ( 'NONE', #137, #62, #75, .T. ) ;
#53 = CARTESIAN_POINT ( 'NONE',  ( 508.8800000000000000, 0.0000000000000000000, 0.0000000000000000000 ) ) ;
#54 = PRODUCT_CONTEXT ( 'NONE', #136, 'mechanical' ) ;
#55 = FILL_AREA_STYLE_COLOUR ( '', #82 ) ;
#56 = DIRECTION ( 'NONE',  ( -1.000000000000000000, -0.0000000000000000000, -0.0000000000000000000 ) ) ;
#57 = ADVANCED_FACE ( 'NONE', ( #10 ), #118, .F. ) ;
#58 = AXIS2_PLACEMENT_3D ( 'NONE', #11, #100, #162 ) ;
#59 = COLOUR_RGB ( '',1.000000000000000000, 1.000000000000000000, 1.000000000000000000 ) ;
#60 = PRODUCT_DEFINITION_CONTEXT ( 'detailed design', #145, 'design' ) ;
#61 = DIRECTION ( 'NONE',  ( 0.0000000000000000000, 0.0000000000000000000, -1.000000000000000000 ) ) ;
#62 = VERTEX_POINT ( 'NONE', #94 ) ;
#63 = UNCERTAINTY_MEASURE_WITH_UNIT (LENGTH_MEASURE( 1.000000000000000100E-005 ), #15, 'distance_accuracy_value', 'NONE');
#64 = AXIS2_PLACEMENT_3D ( 'NONE', #84, #56, #144 ) ;
#65 = AXIS2_PLACEMENT_3D ( 'NONE', #21, #78, #38 ) ;
#66 = CARTESIAN_POINT ( 'NONE',  ( 0.0000000000000000000, 0.0000000000000000000, 0.0000000000000000000 ) ) ;
#67 = DIRECTION ( 'NONE',  ( -1.000000000000000000, -0.0000000000000000000, -0.0000000000000000000 ) ) ;
#68 = FACE_OUTER_BOUND ( 'NONE', #150, .T. ) ;
#69 = FILL_AREA_STYLE ('',( #151 ) ) ;
#70 = CARTESIAN_POINT ( 'NONE',  ( 9.525576769365162700, 0.0000000000000000000, 25.40000000000038600 ) ) ;
#71 = AXIS2_PLACEMENT_3D ( 'NONE', #2, #77, #23 ) ;
#72 = AXIS2_PLACEMENT_3D ( 'NONE', #155, #12, #61 ) ;
#73 = CARTESIAN_POINT ( 'NONE',  ( 0.0000000000000000000, 3.110602869834284000E-015, -25.40000000000005500 ) ) ;
#74 = SHAPE_DEFINITION_REPRESENTATION ( #131, #19 ) ;
#75 = LINE ( 'NONE', #73, #1 ) ;
#76 = LINE ( 'NONE', #89, #148 ) ;
#77 = DIRECTION ( 'NONE',  ( 1.000000000000000000, 0.0000000000000000000, 0.0000000000000000000 ) ) ;
#78 = DIRECTION ( 'NONE',  ( -0.0000000000000000000, 1.000000000000000000, 1.224646799147353200E-016 ) ) ;
#79 = SURFACE_STYLE_USAGE ( .BOTH. , #114 ) ;
#80 = ORIENTED_EDGE ( 'NONE', *, *, #34, .T. ) ;
#81 = AXIS2_PLACEMENT_3D ( 'NONE', #85, #43, #32 ) ;
#82 = COLOUR_RGB ( '',1.000000000000000000, 1.000000000000000000, 1.000000000000000000 ) ;
#83 = ORIENTED_EDGE ( 'NONE', *, *, #18, .T. ) ;
#84 = CARTESIAN_POINT ( 'NONE',  ( 0.0000000000000000000, 0.0000000000000000000, 0.0000000000000000000 ) ) ;
#85 = CARTESIAN_POINT ( 'NONE',  ( 508.8800000000000000, 0.0000000000000000000, 0.0000000000000000000 ) ) ;
#86 = STYLED_ITEM ( 'NONE', ( #132 ), #19 ) ;
#87 = ORIENTED_EDGE ( 'NONE', *, *, #160, .T. ) ;
#88 = AXIS2_PLACEMENT_3D ( 'NONE', #97, #67, #102 ) ;
#89 = CARTESIAN_POINT ( 'NONE',  ( 0.0000000000000000000, 0.0000000000000000000, 25.40000000000005500 ) ) ;
#90 = ORIENTED_EDGE ( 'NONE', *, *, #45, .F. ) ;
#91 = PRESENTATION_LAYER_ASSIGNMENT (  '', '', ( #86 ) ) ;
#92 = CARTESIAN_POINT ( 'NONE',  ( 0.0000000000000000000, 0.0000000000000000000, 0.0000000000000000000 ) ) ;
#93 =( NAMED_UNIT ( * ) SI_UNIT ( $, .STERADIAN. ) SOLID_ANGLE_UNIT ( ) );
#94 = CARTESIAN_POINT ( 'NONE',  ( 0.0000000000000000000, 3.110602869834280400E-015, -25.39999999999999900 ) ) ;
#95 = AXIS2_PLACEMENT_3D ( 'NONE', #96, #110, #14 ) ;
#96 = CARTESIAN_POINT ( 'NONE',  ( 0.0000000000000000000, 0.0000000000000000000, 0.0000000000000000000 ) ) ;
#97 = CARTESIAN_POINT ( 'NONE',  ( 0.0000000000000000000, 0.0000000000000000000, 0.0000000000000000000 ) ) ;
#98 = DIRECTION ( 'NONE',  ( 0.0000000000000000000, 0.0000000000000000000, 1.000000000000000000 ) ) ;
#99 = CIRCLE ( 'NONE', #44, 25.39999999999999900 ) ;
#100 = DIRECTION ( 'NONE',  ( -1.000000000000000000, -0.0000000000000000000, -0.0000000000000000000 ) ) ;
#101 = MECHANICAL_DESIGN_GEOMETRIC_PRESENTATION_REPRESENTATION (  '', ( #86 ), #111 ) ;
#102 = DIRECTION ( 'NONE',  ( 0.0000000000000000000, 0.0000000000000000000, 1.000000000000000000 ) ) ;
#103 = DIRECTION ( 'NONE',  ( -1.000000000000000000, -0.0000000000000000000, -0.0000000000000000000 ) ) ;
#104 = STYLED_ITEM ( 'NONE', ( #17 ), #161 ) ;
#105 = EDGE_LOOP ( 'NONE', ( #29, #163, #112, #90 ) ) ;
#106 = CARTESIAN_POINT ( 'NONE',  ( 8.879999999999999000, 0.0000000000000000000, 3.061616997868383100E-014 ) ) ;
#107 = ORIENTED_EDGE ( 'NONE', *, *, #160, .F. ) ;
#108 =( NAMED_UNIT ( * ) PLANE_ANGLE_UNIT ( ) SI_UNIT ( $, .RADIAN. ) );
#109 = VERTEX_POINT ( 'NONE', #129 ) ;
#110 = DIRECTION ( 'NONE',  ( -1.000000000000000000, -0.0000000000000000000, -0.0000000000000000000 ) ) ;
#111 =( GEOMETRIC_REPRESENTATION_CONTEXT ( 3 ) GLOBAL_UNCERTAINTY_ASSIGNED_CONTEXT ( ( #7 ) ) GLOBAL_UNIT_ASSIGNED_CONTEXT ( ( #154, #142, #16 ) ) REPRESENTATION_CONTEXT ( 'NONE', 'WORKASPACE' ) );
#112 = ORIENTED_EDGE ( 'NONE', *, *, #153, .T. ) ;
#113 = PRESENTATION_LAYER_ASSIGNMENT (  '', '', ( #104 ) ) ;
#114 = SURFACE_SIDE_STYLE ('',( #134 ) ) ;
#115 = ADVANCED_FACE ( 'NONE', ( #156 ), #39, .T. ) ;
#116 = DIRECTION ( 'NONE',  ( 0.0000000000000000000, 0.0000000000000000000, 1.000000000000000000 ) ) ;
#117 = SURFACE_STYLE_USAGE ( .BOTH. , #20 ) ;
#118 = PLANE ( 'NONE',  #71 ) ;
#119 = ORIENTED_EDGE ( 'NONE', *, *, #27, .T. ) ;
#120 = ORIENTED_EDGE ( 'NONE', *, *, #34, .F. ) ;
#121 = PRODUCT ( '432532', '432532', '', ( #54 ) ) ;
#122 = MECHANICAL_DESIGN_GEOMETRIC_PRESENTATION_REPRESENTATION (  '', ( #104 ), #133 ) ;
#123 = CIRCLE ( 'NONE', #72, 500.0000000000000000 ) ;
#124 =( NAMED_UNIT ( * ) PLANE_ANGLE_UNIT ( ) SI_UNIT ( $, .RADIAN. ) );
#125 = ORIENTED_EDGE ( 'NONE', *, *, #27, .F. ) ;
#126 = FACE_OUTER_BOUND ( 'NONE', #41, .T. ) ;
#127 = DIRECTION ( 'NONE',  ( 0.0000000000000000000, 0.0000000000000000000, 1.000000000000000000 ) ) ;
#128 = ORIENTED_EDGE ( 'NONE', *, *, #18, .F. ) ;
#129 = CARTESIAN_POINT ( 'NONE',  ( 0.0000000000000000000, 0.0000000000000000000, 25.39999999999999900 ) ) ;
#130 = ADVANCED_FACE ( 'NONE', ( #138 ), #22, .T. ) ;
#131 = PRODUCT_DEFINITION_SHAPE ( 'NONE', 'NONE',  #147 ) ;
#132 = PRESENTATION_STYLE_ASSIGNMENT (( #79 ) ) ;
#133 =( GEOMETRIC_REPRESENTATION_CONTEXT ( 3 ) GLOBAL_UNCERTAINTY_ASSIGNED_CONTEXT ( ( #63 ) ) GLOBAL_UNIT_ASSIGNED_CONTEXT ( ( #15, #124, #93 ) ) REPRESENTATION_CONTEXT ( 'NONE', 'WORKASPACE' ) );
#134 = SURFACE_STYLE_FILL_AREA ( #69 ) ;
#135 = ORIENTED_EDGE ( 'NONE', *, *, #153, .F. ) ;
#136 = APPLICATION_CONTEXT ( 'automotive_design' ) ;
#137 = VERTEX_POINT ( 'NONE', #37 ) ;
#138 = FACE_OUTER_BOUND ( 'NONE', #105, .T. ) ;
#139 = AXIS2_PLACEMENT_3D ( 'NONE', #92, #127, #31 ) ;
#140 = EDGE_LOOP ( 'NONE', ( #80, #24, #107, #135 ) ) ;
#141 =( GEOMETRIC_REPRESENTATION_CONTEXT ( 3 ) GLOBAL_UNCERTAINTY_ASSIGNED_CONTEXT ( ( #48 ) ) GLOBAL_UNIT_ASSIGNED_CONTEXT ( ( #40, #108, #26 ) ) REPRESENTATION_CONTEXT ( 'NONE', 'WORKASPACE' ) );
#142 =( NAMED_UNIT ( * ) PLANE_ANGLE_UNIT ( ) SI_UNIT ( $, .RADIAN. ) );
#143 = SPHERICAL_SURFACE ( 'NONE', #81, 500.0000000000000000 ) ;
#144 = DIRECTION ( 'NONE',  ( 0.0000000000000000000, 0.0000000000000000000, 1.000000000000000000 ) ) ;
#145 = APPLICATION_CONTEXT ( 'automotive_design' ) ;
#146 = CIRCLE ( 'NONE', #64, 25.39999999999999900 ) ;
#147 = PRODUCT_DEFINITION ( 'Î´Öª', '', #157, #60 ) ;
#148 = VECTOR ( 'NONE', #25, 1000.000000000000000 ) ;
#149 = FILL_AREA_STYLE ('',( #55 ) ) ;
#150 = EDGE_LOOP ( 'NONE', ( #49, #83, #125 ) ) ;
#151 = FILL_AREA_STYLE_COLOUR ( '', #59 ) ;
#152 = CLOSED_SHELL ( 'NONE', ( #115, #35, #57, #158, #130 ) ) ;
#153 = EDGE_CURVE ( 'NONE', #50, #109, #76, .T. ) ;
#154 =( LENGTH_UNIT ( ) NAMED_UNIT ( * ) SI_UNIT ( .MILLI., .METRE. ) );
#155 = CARTESIAN_POINT ( 'NONE',  ( 508.8800000000000000, 0.0000000000000000000, 0.0000000000000000000 ) ) ;
#156 = FACE_OUTER_BOUND ( 'NONE', #140, .T. ) ;
#157 = PRODUCT_DEFINITION_FORMATION_WITH_SPECIFIED_SOURCE ( 'ÈÎºÎ', '', #121, .NOT_KNOWN. ) ;
#158 = ADVANCED_FACE ( 'NONE', ( #126 ), #143, .F. ) ;
#159 = APPLICATION_PROTOCOL_DEFINITION ( 'draft international standard', 'automotive_design', 1998, #136 ) ;
#160 = EDGE_CURVE ( 'NONE', #109, #62, #146, .T. ) ;
#161 = MANIFOLD_SOLID_BREP ( 'Ðý×ª1', #152 ) ;
#162 = DIRECTION ( 'NONE',  ( 0.0000000000000000000, 0.0000000000000000000, 1.000000000000000000 ) ) ;
#163 = ORIENTED_EDGE ( 'NONE', *, *, #8, .T. ) ;
#164 = VERTEX_POINT ( 'NONE', #106 ) ;
#165 = DIRECTION ( 'NONE',  ( -1.000000000000000000, -0.0000000000000000000, -0.0000000000000000000 ) ) ;
#166 = PRODUCT_RELATED_PRODUCT_CATEGORY ( 'part', '', ( #121 ) ) ;
ENDSEC;
END-ISO-10303-21;
