ISO-10303-21;
HEADER;
FILE_DESCRIPTION (( 'STEP AP203' ),
    '1' );
FILE_NAME ('416010.STEP',
    '2019-08-21T07:08:04',
    ( '' ),
    ( '' ),
    'SwSTEP 2.0',
    'SolidWorks 2016',
    '' );
FILE_SCHEMA (( 'CONFIG_CONTROL_DESIGN' ));
ENDSEC;

DATA;
#1 = DIRECTION ( 'NONE',  ( 0.0000000000000000000, 0.0000000000000000000, 1.000000000000000000 ) ) ;
#2 = UNCERTAINTY_MEASURE_WITH_UNIT (LENGTH_MEASURE( 1.000000000000000100E-005 ), #23, 'distance_accuracy_value', 'NONE');
#3 = LOCAL_TIME ( 15, 8, 4.000000000000000000, #58 ) ;
#4 = APPROVAL_ROLE ( '' ) ;
#5 = AXIS2_PLACEMENT_3D ( 'NONE', #132, #208, #62 ) ;
#6 = PLANE ( 'NONE',  #248 ) ;
#7 = CC_DESIGN_SECURITY_CLASSIFICATION ( #11, ( #16 ) ) ;
#8 =( NAMED_UNIT ( * ) PLANE_ANGLE_UNIT ( ) SI_UNIT ( $, .RADIAN. ) );
#9 = PERSON_AND_ORGANIZATION ( #88, #144 ) ;
#10 = AXIS2_PLACEMENT_3D ( 'NONE', #134, #233, #42 ) ;
#11 = SECURITY_CLASSIFICATION ( '', '', #139 ) ;
#12 = COORDINATED_UNIVERSAL_TIME_OFFSET ( 8, 0, .AHEAD. ) ;
#13 = PRODUCT_DEFINITION ( 'Î´Öª', '', #129, #187 ) ;
#14 = PERSON_AND_ORGANIZATION ( #88, #144 ) ;
#15 = LOCAL_TIME ( 15, 8, 4.000000000000000000, #229 ) ;
#16 = PRODUCT_DEFINITION_FORMATION_WITH_SPECIFIED_SOURCE ( 'ÈÎºÎ', '', #174, .NOT_KNOWN. ) ;
#17 = ORIENTED_EDGE ( 'NONE', *, *, #219, .F. ) ;
#18 =( GEOMETRIC_REPRESENTATION_CONTEXT ( 3 ) GLOBAL_UNCERTAINTY_ASSIGNED_CONTEXT ( ( #2 ) ) GLOBAL_UNIT_ASSIGNED_CONTEXT ( ( #23, #8, #137 ) ) REPRESENTATION_CONTEXT ( 'NONE', 'WORKASPACE' ) );
#19 = DIRECTION ( 'NONE',  ( 1.000000000000000000, 0.0000000000000000000, -0.0000000000000000000 ) ) ;
#20 = CC_DESIGN_APPROVAL ( #105, ( #146 ) ) ;
#21 = LOCAL_TIME ( 15, 8, 4.000000000000000000, #253 ) ;
#22 = CARTESIAN_POINT ( 'NONE',  ( 0.0000000000000000000, 0.0000000000000000000, 0.0000000000000000000 ) ) ;
#23 =( LENGTH_UNIT ( ) NAMED_UNIT ( * ) SI_UNIT ( .MILLI., .METRE. ) );
#24 = PERSON_AND_ORGANIZATION_ROLE ( 'classification_officer' ) ;
#25 = EDGE_LOOP ( 'NONE', ( #251, #119 ) ) ;
#26 = PERSON_AND_ORGANIZATION ( #88, #144 ) ;
#27 = DIRECTION ( 'NONE',  ( 1.000000000000000000, 0.0000000000000000000, -0.0000000000000000000 ) ) ;
#28 = AXIS2_PLACEMENT_3D ( 'NONE', #151, #1, #232 ) ;
#29 = DIRECTION ( 'NONE',  ( 1.000000000000000000, 0.0000000000000000000, 0.0000000000000000000 ) ) ;
#30 = CC_DESIGN_DATE_AND_TIME_ASSIGNMENT ( #215, #100, ( #13 ) ) ;
#31 = PRODUCT_DEFINITION_SHAPE ( 'NONE', 'NONE',  #196 ) ;
#32 = SECURITY_CLASSIFICATION_LEVEL ( 'unclassified' ) ;
#33 = SHAPE_DEFINITION_REPRESENTATION ( #53, #234 ) ;
#34 = CC_DESIGN_APPROVAL ( #104, ( #16 ) ) ;
#35 = LINE ( 'NONE', #250, #231 ) ;
#36 = PRODUCT_RELATED_PRODUCT_CATEGORY ( 'detail', '', ( #174 ) ) ;
#37 = CC_DESIGN_PERSON_AND_ORGANIZATION_ASSIGNMENT ( #242, #238, ( #128 ) ) ;
#38 = ORIENTED_EDGE ( 'NONE', *, *, #219, .T. ) ;
#39 = DATE_AND_TIME ( #122, #199 ) ;
#40 = CALENDAR_DATE ( 2019, 21, 8 ) ;
#41 = ADVANCED_FACE ( 'NONE', ( #106 ), #83, .T. ) ;
#42 = DIRECTION ( 'NONE',  ( -1.000000000000000000, 0.0000000000000000000, 0.0000000000000000000 ) ) ;
#43 = AXIS2_PLACEMENT_3D ( 'NONE', #22, #138, #29 ) ;
#44 = CC_DESIGN_DATE_AND_TIME_ASSIGNMENT ( #107, #142, ( #146 ) ) ;
#45 = PERSON_AND_ORGANIZATION ( #88, #144 ) ;
#46 = DATE_AND_TIME ( #114, #91 ) ;
#47 = PERSON_AND_ORGANIZATION_ROLE ( 'creator' ) ;
#48 = CC_DESIGN_PERSON_AND_ORGANIZATION_ASSIGNMENT ( #136, #235, ( #16 ) ) ;
#49 = CARTESIAN_POINT ( 'NONE',  ( 0.0000000000000000000, 0.0000000000000000000, 0.0000000000000000000 ) ) ;
#50 = CIRCLE ( 'NONE', #164, 25.39999999999999900 ) ;
#51 = PERSON_AND_ORGANIZATION ( #88, #144 ) ;
#52 = COORDINATED_UNIVERSAL_TIME_OFFSET ( 8, 0, .AHEAD. ) ;
#53 = PRODUCT_DEFINITION_SHAPE ( 'NONE', 'NONE',  #13 ) ;
#54 = ORIENTED_EDGE ( 'NONE', *, *, #75, .F. ) ;
#55 = DATE_AND_TIME ( #246, #89 ) ;
#56 = PRODUCT_RELATED_PRODUCT_CATEGORY ( 'detail', '', ( #128 ) ) ;
#57 = PERSON_AND_ORGANIZATION ( #88, #144 ) ;
#58 = COORDINATED_UNIVERSAL_TIME_OFFSET ( 8, 0, .AHEAD. ) ;
#59 = CC_DESIGN_PERSON_AND_ORGANIZATION_ASSIGNMENT ( #239, #212, ( #16 ) ) ;
#60 = DIRECTION ( 'NONE',  ( 0.0000000000000000000, 0.0000000000000000000, 1.000000000000000000 ) ) ;
#61 = ORIENTED_EDGE ( 'NONE', *, *, #131, .T. ) ;
#62 = DIRECTION ( 'NONE',  ( -1.000000000000000000, 0.0000000000000000000, 0.0000000000000000000 ) ) ;
#63 = PLANE ( 'NONE',  #205 ) ;
#64 = PERSON_AND_ORGANIZATION_ROLE ( 'design_owner' ) ;
#65 = APPLICATION_CONTEXT ( 'configuration controlled 3d designs of mechanical parts and assemblies' ) ;
#66 = APPROVAL_ROLE ( '' ) ;
#67 = APPLICATION_PROTOCOL_DEFINITION ( 'international standard', 'config_control_design', 1994, #171 ) ;
#68 = COORDINATED_UNIVERSAL_TIME_OFFSET ( 8, 0, .AHEAD. ) ;
#69 = DESIGN_CONTEXT ( 'detailed design', #65, 'design' ) ;
#70 = CLOSED_SHELL ( 'NONE', ( #179, #41, #249, #72 ) ) ;
#71 = FACE_OUTER_BOUND ( 'NONE', #25, .T. ) ;
#72 = ADVANCED_FACE ( 'NONE', ( #71 ), #63, .F. ) ;
#73 = DATE_AND_TIME ( #125, #15 ) ;
#74 = CIRCLE ( 'NONE', #243, 25.39999999999999900 ) ;
#75 = EDGE_CURVE ( 'NONE', #156, #158, #93, .T. ) ;
#76 = DIRECTION ( 'NONE',  ( 0.0000000000000000000, 0.0000000000000000000, 1.000000000000000000 ) ) ;
#77 = APPROVAL_STATUS ( 'not_yet_approved' ) ;
#78 = APPROVAL_ROLE ( '' ) ;
#79 = PERSON_AND_ORGANIZATION ( #88, #144 ) ;
#80 = DIRECTION ( 'NONE',  ( 1.000000000000000000, 0.0000000000000000000, 0.0000000000000000000 ) ) ;
#81 = CC_DESIGN_APPROVAL ( #149, ( #11 ) ) ;
#82 = APPROVAL_STATUS ( 'not_yet_approved' ) ;
#83 = CYLINDRICAL_SURFACE ( 'NONE', #10, 25.39999999999999900 ) ;
#84 = LOCAL_TIME ( 15, 8, 4.000000000000000000, #52 ) ;
#85 = APPROVAL_ROLE ( '' ) ;
#86 = LOCAL_TIME ( 15, 8, 4.000000000000000000, #68 ) ;
#87 = CC_DESIGN_PERSON_AND_ORGANIZATION_ASSIGNMENT ( #182, #194, ( #146 ) ) ;
#88 = PERSON ( 'Î´Ö¸¶¨', 'Î´Ö¸¶¨', 'Î´Ö¸¶¨', ('Î´Ö¸¶¨'), ('Î´Ö¸¶¨'), ('Î´Ö¸¶¨') ) ;
#89 = LOCAL_TIME ( 15, 8, 4.000000000000000000, #172 ) ;
#90 = CC_DESIGN_PERSON_AND_ORGANIZATION_ASSIGNMENT ( #191, #220, ( #13 ) ) ;
#91 = LOCAL_TIME ( 15, 8, 4.000000000000000000, #183 ) ;
#92 = EDGE_CURVE ( 'NONE', #159, #181, #50, .T. ) ;
#93 = CIRCLE ( 'NONE', #28, 25.39999999999999900 ) ;
#94 = DATE_AND_TIME ( #252, #84 ) ;
#95 = DATE_AND_TIME ( #193, #21 ) ;
#96 = APPLICATION_CONTEXT ( 'configuration controlled 3d designs of mechanical parts and assemblies' ) ;
#97 = APPLICATION_PROTOCOL_DEFINITION ( 'international standard', 'config_control_design', 1994, #96 ) ;
#98 = MECHANICAL_CONTEXT ( 'NONE', #154, 'mechanical' ) ;
#99 = APPROVAL_ROLE ( '' ) ;
#100 = DATE_TIME_ROLE ( 'creation_date' ) ;
#101 = APPROVAL ( #237, 'Î´Ö¸¶¨' ) ;
#102 = APPROVAL_DATE_TIME ( #39, #105 ) ;
#103 = APPROVAL_PERSON_ORGANIZATION ( #203, #149, #66 ) ;
#104 = APPROVAL ( #186, 'Î´Ö¸¶¨' ) ;
#105 = APPROVAL ( #157, 'Î´Ö¸¶¨' ) ;
#106 = FACE_OUTER_BOUND ( 'NONE', #217, .T. ) ;
#107 = DATE_AND_TIME ( #111, #148 ) ;
#108 = APPROVAL_DATE_TIME ( #135, #149 ) ;
#109 = DIRECTION ( 'NONE',  ( 0.0000000000000000000, 0.0000000000000000000, 1.000000000000000000 ) ) ;
#110 = CARTESIAN_POINT ( 'NONE',  ( 25.39999999999999900, 3.110602869834276900E-015, 0.0000000000000000000 ) ) ;
#111 = CALENDAR_DATE ( 2019, 21, 8 ) ;
#112 = CC_DESIGN_PERSON_AND_ORGANIZATION_ASSIGNMENT ( #9, #192, ( #129 ) ) ;
#113 = APPROVAL_DATE_TIME ( #94, #101 ) ;
#114 = CALENDAR_DATE ( 2019, 21, 8 ) ;
#115 = DIRECTION ( 'NONE',  ( 1.000000000000000000, 0.0000000000000000000, 0.0000000000000000000 ) ) ;
#116 = CARTESIAN_POINT ( 'NONE',  ( 0.0000000000000000000, 0.0000000000000000000, 10.00000000000000000 ) ) ;
#117 = EDGE_CURVE ( 'NONE', #181, #159, #74, .T. ) ;
#118 = ORIENTED_EDGE ( 'NONE', *, *, #92, .T. ) ;
#119 = ORIENTED_EDGE ( 'NONE', *, *, #92, .F. ) ;
#120 = DIRECTION ( 'NONE',  ( -0.0000000000000000000, -0.0000000000000000000, -1.000000000000000000 ) ) ;
#121 = CC_DESIGN_SECURITY_CLASSIFICATION ( #146, ( #129 ) ) ;
#122 = CALENDAR_DATE ( 2019, 21, 8 ) ;
#123 = PERSON_AND_ORGANIZATION ( #88, #144 ) ;
#124 = CC_DESIGN_DATE_AND_TIME_ASSIGNMENT ( #210, #155, ( #11 ) ) ;
#125 = CALENDAR_DATE ( 2019, 21, 8 ) ;
#126 = ORIENTED_EDGE ( 'NONE', *, *, #201, .T. ) ;
#127 = AXIS2_PLACEMENT_3D ( 'NONE', #49, #76, #80 ) ;
#128 = PRODUCT ( '416010', '416010', '', ( #98 ) ) ;
#129 = PRODUCT_DEFINITION_FORMATION_WITH_SPECIFIED_SOURCE ( 'ÈÎºÎ', '', #128, .NOT_KNOWN. ) ;
#130 = CALENDAR_DATE ( 2019, 21, 8 ) ;
#131 = EDGE_CURVE ( 'NONE', #158, #181, #35, .T. ) ;
#132 = CARTESIAN_POINT ( 'NONE',  ( 0.0000000000000000000, 0.0000000000000000000, 10.00000000000000000 ) ) ;
#133 = DIRECTION ( 'NONE',  ( -0.0000000000000000000, -0.0000000000000000000, -1.000000000000000000 ) ) ;
#134 = CARTESIAN_POINT ( 'NONE',  ( 0.0000000000000000000, 0.0000000000000000000, 10.00000000000000000 ) ) ;
#135 = DATE_AND_TIME ( #197, #3 ) ;
#136 = PERSON_AND_ORGANIZATION ( #88, #144 ) ;
#137 =( NAMED_UNIT ( * ) SI_UNIT ( $, .STERADIAN. ) SOLID_ANGLE_UNIT ( ) );
#138 = DIRECTION ( 'NONE',  ( 0.0000000000000000000, 0.0000000000000000000, 1.000000000000000000 ) ) ;
#139 = SECURITY_CLASSIFICATION_LEVEL ( 'unclassified' ) ;
#140 = APPROVAL_PERSON_ORGANIZATION ( #45, #105, #85 ) ;
#141 = LINE ( 'NONE', #178, #177 ) ;
#142 = DATE_TIME_ROLE ( 'classification_date' ) ;
#143 = MANIFOLD_SOLID_BREP ( 'Í¹Ì¨-À­Éì1', #70 ) ;
#144 = ORGANIZATION ( 'Î´Ö¸¶¨', 'Î´Ö¸¶¨', '' ) ;
#145 = CC_DESIGN_APPROVAL ( #211, ( #196 ) ) ;
#146 = SECURITY_CLASSIFICATION ( '', '', #32 ) ;
#147 = ORIENTED_EDGE ( 'NONE', *, *, #131, .F. ) ;
#148 = LOCAL_TIME ( 15, 8, 4.000000000000000000, #12 ) ;
#149 = APPROVAL ( #188, 'Î´Ö¸¶¨' ) ;
#150 = CARTESIAN_POINT ( 'NONE',  ( 0.0000000000000000000, 0.0000000000000000000, 0.0000000000000000000 ) ) ;
#151 = CARTESIAN_POINT ( 'NONE',  ( 0.0000000000000000000, 0.0000000000000000000, 10.00000000000000000 ) ) ;
#152 = CARTESIAN_POINT ( 'NONE',  ( -25.39999999999999900, 0.0000000000000000000, 10.00000000000000000 ) ) ;
#153 = DIRECTION ( 'NONE',  ( 0.0000000000000000000, 0.0000000000000000000, 1.000000000000000000 ) ) ;
#154 = APPLICATION_CONTEXT ( 'configuration controlled 3d designs of mechanical parts and assemblies' ) ;
#155 = DATE_TIME_ROLE ( 'classification_date' ) ;
#156 = VERTEX_POINT ( 'NONE', #163 ) ;
#157 = APPROVAL_STATUS ( 'not_yet_approved' ) ;
#158 = VERTEX_POINT ( 'NONE', #152 ) ;
#159 = VERTEX_POINT ( 'NONE', #110 ) ;
#160 = COORDINATED_UNIVERSAL_TIME_OFFSET ( 8, 0, .AHEAD. ) ;
#161 = DIRECTION ( 'NONE',  ( 0.0000000000000000000, 0.0000000000000000000, 1.000000000000000000 ) ) ;
#162 = CC_DESIGN_APPROVAL ( #213, ( #13 ) ) ;
#163 = CARTESIAN_POINT ( 'NONE',  ( 25.39999999999999900, 3.110602869834276900E-015, 10.00000000000000000 ) ) ;
#164 = AXIS2_PLACEMENT_3D ( 'NONE', #150, #60, #167 ) ;
#165 = APPROVAL_PERSON_ORGANIZATION ( #57, #213, #190 ) ;
#166 = APPROVAL_DATE_TIME ( #46, #104 ) ;
#167 = DIRECTION ( 'NONE',  ( 1.000000000000000000, 0.0000000000000000000, 0.0000000000000000000 ) ) ;
#168 = DATE_TIME_ROLE ( 'creation_date' ) ;
#169 = CYLINDRICAL_SURFACE ( 'NONE', #5, 25.39999999999999900 ) ;
#170 = FACE_OUTER_BOUND ( 'NONE', #200, .T. ) ;
#171 = APPLICATION_CONTEXT ( 'configuration controlled 3d designs of mechanical parts and assemblies' ) ;
#172 = COORDINATED_UNIVERSAL_TIME_OFFSET ( 8, 0, .AHEAD. ) ;
#173 = FACE_OUTER_BOUND ( 'NONE', #198, .T. ) ;
#174 = PRODUCT ( '416010', '416010', '', ( #236 ) ) ;
#175 = APPROVAL_DATE_TIME ( #73, #211 ) ;
#176 = CC_DESIGN_PERSON_AND_ORGANIZATION_ASSIGNMENT ( #185, #64, ( #174 ) ) ;
#177 = VECTOR ( 'NONE', #120, 1000.000000000000000 ) ;
#178 = CARTESIAN_POINT ( 'NONE',  ( 25.39999999999999900, 3.110602869834276900E-015, 10.00000000000000000 ) ) ;
#179 = ADVANCED_FACE ( 'NONE', ( #170 ), #169, .T. ) ;
#180 = CARTESIAN_POINT ( 'NONE',  ( -25.39999999999999900, 0.0000000000000000000, 0.0000000000000000000 ) ) ;
#181 = VERTEX_POINT ( 'NONE', #180 ) ;
#182 = PERSON_AND_ORGANIZATION ( #88, #144 ) ;
#183 = COORDINATED_UNIVERSAL_TIME_OFFSET ( 8, 0, .AHEAD. ) ;
#184 = APPLICATION_PROTOCOL_DEFINITION ( 'international standard', 'config_control_design', 1994, #65 ) ;
#185 = PERSON_AND_ORGANIZATION ( #88, #144 ) ;
#186 = APPROVAL_STATUS ( 'not_yet_approved' ) ;
#187 = DESIGN_CONTEXT ( 'detailed design', #171, 'design' ) ;
#188 = APPROVAL_STATUS ( 'not_yet_approved' ) ;
#189 = DIRECTION ( 'NONE',  ( 0.0000000000000000000, 0.0000000000000000000, 1.000000000000000000 ) ) ;
#190 = APPROVAL_ROLE ( '' ) ;
#191 = PERSON_AND_ORGANIZATION ( #88, #144 ) ;
#192 = PERSON_AND_ORGANIZATION_ROLE ( 'design_supplier' ) ;
#193 = CALENDAR_DATE ( 2019, 21, 8 ) ;
#194 = PERSON_AND_ORGANIZATION_ROLE ( 'classification_officer' ) ;
#195 = APPROVAL_PERSON_ORGANIZATION ( #14, #101, #99 ) ;
#196 = PRODUCT_DEFINITION ( 'Î´Öª', '', #16, #69 ) ;
#197 = CALENDAR_DATE ( 2019, 21, 8 ) ;
#198 = EDGE_LOOP ( 'NONE', ( #38, #207 ) ) ;
#199 = LOCAL_TIME ( 15, 8, 4.000000000000000000, #222 ) ;
#200 = EDGE_LOOP ( 'NONE', ( #54, #126, #118, #147 ) ) ;
#201 = EDGE_CURVE ( 'NONE', #156, #159, #141, .T. ) ;
#202 = CC_DESIGN_PERSON_AND_ORGANIZATION_ASSIGNMENT ( #123, #24, ( #11 ) ) ;
#203 = PERSON_AND_ORGANIZATION ( #88, #144 ) ;
#204 = CARTESIAN_POINT ( 'NONE',  ( 0.0000000000000000000, 0.0000000000000000000, 0.0000000000000000000 ) ) ;
#205 = AXIS2_PLACEMENT_3D ( 'NONE', #204, #161, #19 ) ;
#206 = CARTESIAN_POINT ( 'NONE',  ( 0.0000000000000000000, 0.0000000000000000000, 0.0000000000000000000 ) ) ;
#207 = ORIENTED_EDGE ( 'NONE', *, *, #75, .T. ) ;
#208 = DIRECTION ( 'NONE',  ( -0.0000000000000000000, -0.0000000000000000000, -1.000000000000000000 ) ) ;
#209 = APPROVAL_DATE_TIME ( #55, #213 ) ;
#210 = DATE_AND_TIME ( #40, #86 ) ;
#211 = APPROVAL ( #77, 'Î´Ö¸¶¨' ) ;
#212 = PERSON_AND_ORGANIZATION_ROLE ( 'creator' ) ;
#213 = APPROVAL ( #82, 'Î´Ö¸¶¨' ) ;
#214 = ORIENTED_EDGE ( 'NONE', *, *, #201, .F. ) ;
#215 = DATE_AND_TIME ( #130, #226 ) ;
#216 = CARTESIAN_POINT ( 'NONE',  ( 0.0000000000000000000, 0.0000000000000000000, 10.00000000000000000 ) ) ;
#217 = EDGE_LOOP ( 'NONE', ( #214, #17, #61, #224 ) ) ;
#218 = APPLICATION_PROTOCOL_DEFINITION ( 'international standard', 'config_control_design', 1994, #154 ) ;
#219 = EDGE_CURVE ( 'NONE', #158, #156, #223, .T. ) ;
#220 = PERSON_AND_ORGANIZATION_ROLE ( 'creator' ) ;
#221 = CC_DESIGN_APPROVAL ( #101, ( #129 ) ) ;
#222 = COORDINATED_UNIVERSAL_TIME_OFFSET ( 8, 0, .AHEAD. ) ;
#223 = CIRCLE ( 'NONE', #225, 25.39999999999999900 ) ;
#224 = ORIENTED_EDGE ( 'NONE', *, *, #117, .T. ) ;
#225 = AXIS2_PLACEMENT_3D ( 'NONE', #116, #189, #115 ) ;
#226 = LOCAL_TIME ( 15, 8, 4.000000000000000000, #160 ) ;
#227 = APPROVAL_PERSON_ORGANIZATION ( #79, #211, #4 ) ;
#228 = CC_DESIGN_PERSON_AND_ORGANIZATION_ASSIGNMENT ( #26, #47, ( #196 ) ) ;
#229 = COORDINATED_UNIVERSAL_TIME_OFFSET ( 8, 0, .AHEAD. ) ;
#230 = CC_DESIGN_PERSON_AND_ORGANIZATION_ASSIGNMENT ( #244, #240, ( #129 ) ) ;
#231 = VECTOR ( 'NONE', #133, 1000.000000000000000 ) ;
#232 = DIRECTION ( 'NONE',  ( 1.000000000000000000, 0.0000000000000000000, 0.0000000000000000000 ) ) ;
#233 = DIRECTION ( 'NONE',  ( -0.0000000000000000000, -0.0000000000000000000, -1.000000000000000000 ) ) ;
#234 = ADVANCED_BREP_SHAPE_REPRESENTATION ( '416010', ( #143, #43 ), #18 ) ;
#235 = PERSON_AND_ORGANIZATION_ROLE ( 'design_supplier' ) ;
#236 = MECHANICAL_CONTEXT ( 'NONE', #96, 'mechanical' ) ;
#237 = APPROVAL_STATUS ( 'not_yet_approved' ) ;
#238 = PERSON_AND_ORGANIZATION_ROLE ( 'design_owner' ) ;
#239 = PERSON_AND_ORGANIZATION ( #88, #144 ) ;
#240 = PERSON_AND_ORGANIZATION_ROLE ( 'creator' ) ;
#241 = CC_DESIGN_DATE_AND_TIME_ASSIGNMENT ( #95, #168, ( #196 ) ) ;
#242 = PERSON_AND_ORGANIZATION ( #88, #144 ) ;
#243 = AXIS2_PLACEMENT_3D ( 'NONE', #206, #109, #247 ) ;
#244 = PERSON_AND_ORGANIZATION ( #88, #144 ) ;
#245 = APPROVAL_PERSON_ORGANIZATION ( #51, #104, #78 ) ;
#246 = CALENDAR_DATE ( 2019, 21, 8 ) ;
#247 = DIRECTION ( 'NONE',  ( 1.000000000000000000, 0.0000000000000000000, 0.0000000000000000000 ) ) ;
#248 = AXIS2_PLACEMENT_3D ( 'NONE', #216, #153, #27 ) ;
#249 = ADVANCED_FACE ( 'NONE', ( #173 ), #6, .T. ) ;
#250 = CARTESIAN_POINT ( 'NONE',  ( -25.39999999999999900, 0.0000000000000000000, 10.00000000000000000 ) ) ;
#251 = ORIENTED_EDGE ( 'NONE', *, *, #117, .F. ) ;
#252 = CALENDAR_DATE ( 2019, 21, 8 ) ;
#253 = COORDINATED_UNIVERSAL_TIME_OFFSET ( 8, 0, .AHEAD. ) ;
ENDSEC;
END-ISO-10303-21;
