ISO-10303-21;
HEADER;
FILE_DESCRIPTION (( 'STEP AP203' ),
    '1' );
FILE_NAME ('416005.STEP',
    '2019-08-21T06:46:57',
    ( '' ),
    ( '' ),
    'SwSTEP 2.0',
    'SolidWorks 2016',
    '' );
FILE_SCHEMA (( 'CONFIG_CONTROL_DESIGN' ));
ENDSEC;

DATA;
#1 = APPLICATION_PROTOCOL_DEFINITION ( 'international standard', 'config_control_design', 1994, #157 ) ;
#2 = ORIENTED_EDGE ( 'NONE', *, *, #10, .F. ) ;
#3 = CALENDAR_DATE ( 2019, 21, 8 ) ;
#4 = VERTEX_POINT ( 'NONE', #152 ) ;
#5 = DATE_AND_TIME ( #213, #25 ) ;
#6 = CALENDAR_DATE ( 2019, 21, 8 ) ;
#7 = ORIENTED_EDGE ( 'NONE', *, *, #183, .T. ) ;
#8 = APPROVAL_PERSON_ORGANIZATION ( #98, #192, #217 ) ;
#9 =( GEOMETRIC_REPRESENTATION_CONTEXT ( 3 ) GLOBAL_UNCERTAINTY_ASSIGNED_CONTEXT ( ( #91 ) ) GLOBAL_UNIT_ASSIGNED_CONTEXT ( ( #149, #17, #54 ) ) REPRESENTATION_CONTEXT ( 'NONE', 'WORKASPACE' ) );
#10 = EDGE_CURVE ( 'NONE', #186, #181, #33, .T. ) ;
#11 = CARTESIAN_POINT ( 'NONE',  ( 0.0000000000000000000, 0.0000000000000000000, 6.000000000000000000 ) ) ;
#12 = LOCAL_TIME ( 14, 46, 57.00000000000000000, #228 ) ;
#13 = CC_DESIGN_PERSON_AND_ORGANIZATION_ASSIGNMENT ( #117, #106, ( #238 ) ) ;
#14 = CC_DESIGN_DATE_AND_TIME_ASSIGNMENT ( #5, #90, ( #238 ) ) ;
#15 = DIRECTION ( 'NONE',  ( 0.0000000000000000000, 0.0000000000000000000, 1.000000000000000000 ) ) ;
#16 = PERSON_AND_ORGANIZATION ( #182, #175 ) ;
#17 =( NAMED_UNIT ( * ) PLANE_ANGLE_UNIT ( ) SI_UNIT ( $, .RADIAN. ) );
#18 = CALENDAR_DATE ( 2019, 21, 8 ) ;
#19 = CARTESIAN_POINT ( 'NONE',  ( 0.0000000000000000000, 0.0000000000000000000, 0.0000000000000000000 ) ) ;
#20 = APPLICATION_PROTOCOL_DEFINITION ( 'international standard', 'config_control_design', 1994, #215 ) ;
#21 = PERSON_AND_ORGANIZATION_ROLE ( 'design_supplier' ) ;
#22 = LINE ( 'NONE', #232, #202 ) ;
#23 = CC_DESIGN_DATE_AND_TIME_ASSIGNMENT ( #34, #155, ( #41 ) ) ;
#24 = EDGE_CURVE ( 'NONE', #181, #186, #249, .T. ) ;
#25 = LOCAL_TIME ( 14, 46, 57.00000000000000000, #72 ) ;
#26 = CC_DESIGN_SECURITY_CLASSIFICATION ( #238, ( #95 ) ) ;
#27 = CYLINDRICAL_SURFACE ( 'NONE', #240, 12.50000000000000000 ) ;
#28 = LOCAL_TIME ( 14, 46, 57.00000000000000000, #126 ) ;
#29 = APPROVAL_DATE_TIME ( #206, #192 ) ;
#30 = MANIFOLD_SOLID_BREP ( 'Í¹Ì¨-À­Éì1', #40 ) ;
#31 = APPROVAL_PERSON_ORGANIZATION ( #132, #112, #71 ) ;
#32 = CARTESIAN_POINT ( 'NONE',  ( 0.0000000000000000000, 0.0000000000000000000, 6.000000000000000000 ) ) ;
#33 = CIRCLE ( 'NONE', #113, 12.50000000000000000 ) ;
#34 = DATE_AND_TIME ( #18, #243 ) ;
#35 = CIRCLE ( 'NONE', #86, 12.50000000000000000 ) ;
#36 = APPLICATION_CONTEXT ( 'configuration controlled 3d designs of mechanical parts and assemblies' ) ;
#37 = APPLICATION_CONTEXT ( 'configuration controlled 3d designs of mechanical parts and assemblies' ) ;
#38 = ADVANCED_FACE ( 'NONE', ( #56 ), #27, .T. ) ;
#39 = PERSON_AND_ORGANIZATION_ROLE ( 'classification_officer' ) ;
#40 = CLOSED_SHELL ( 'NONE', ( #38, #136, #221, #108 ) ) ;
#41 = PRODUCT_DEFINITION ( 'Î´Öª', '', #76, #158 ) ;
#42 = LOCAL_TIME ( 14, 46, 57.00000000000000000, #92 ) ;
#43 = CC_DESIGN_SECURITY_CLASSIFICATION ( #133, ( #76 ) ) ;
#44 = PERSON_AND_ORGANIZATION ( #182, #175 ) ;
#45 = AXIS2_PLACEMENT_3D ( 'NONE', #49, #101, #119 ) ;
#46 = CIRCLE ( 'NONE', #207, 12.50000000000000000 ) ;
#47 = APPROVAL_DATE_TIME ( #145, #174 ) ;
#48 = DIRECTION ( 'NONE',  ( 0.0000000000000000000, 0.0000000000000000000, 1.000000000000000000 ) ) ;
#49 = CARTESIAN_POINT ( 'NONE',  ( 0.0000000000000000000, 0.0000000000000000000, 6.000000000000000000 ) ) ;
#50 = LOCAL_TIME ( 14, 46, 57.00000000000000000, #163 ) ;
#51 = AXIS2_PLACEMENT_3D ( 'NONE', #19, #250, #235 ) ;
#52 = ORIENTED_EDGE ( 'NONE', *, *, #167, .F. ) ;
#53 = MECHANICAL_CONTEXT ( 'NONE', #36, 'mechanical' ) ;
#54 =( NAMED_UNIT ( * ) SI_UNIT ( $, .STERADIAN. ) SOLID_ANGLE_UNIT ( ) );
#55 = APPROVAL_STATUS ( 'not_yet_approved' ) ;
#56 = FACE_OUTER_BOUND ( 'NONE', #134, .T. ) ;
#57 = APPROVAL_STATUS ( 'not_yet_approved' ) ;
#58 = CC_DESIGN_DATE_AND_TIME_ASSIGNMENT ( #218, #200, ( #144 ) ) ;
#59 = CALENDAR_DATE ( 2019, 21, 8 ) ;
#60 = LOCAL_TIME ( 14, 46, 57.00000000000000000, #75 ) ;
#61 = APPROVAL_PERSON_ORGANIZATION ( #177, #62, #237 ) ;
#62 = APPROVAL ( #248, 'Î´Ö¸¶¨' ) ;
#63 = CC_DESIGN_APPROVAL ( #174, ( #144 ) ) ;
#64 = CYLINDRICAL_SURFACE ( 'NONE', #45, 12.50000000000000000 ) ;
#65 = APPROVAL_DATE_TIME ( #194, #110 ) ;
#66 = CARTESIAN_POINT ( 'NONE',  ( -12.50000000000000000, 0.0000000000000000000, 6.000000000000000000 ) ) ;
#67 = FACE_OUTER_BOUND ( 'NONE', #204, .T. ) ;
#68 = DIRECTION ( 'NONE',  ( -0.0000000000000000000, -0.0000000000000000000, -1.000000000000000000 ) ) ;
#69 = PERSON_AND_ORGANIZATION ( #182, #175 ) ;
#70 = APPLICATION_PROTOCOL_DEFINITION ( 'international standard', 'config_control_design', 1994, #37 ) ;
#71 = APPROVAL_ROLE ( '' ) ;
#72 = COORDINATED_UNIVERSAL_TIME_OFFSET ( 8, 0, .AHEAD. ) ;
#73 = PRODUCT_RELATED_PRODUCT_CATEGORY ( 'detail', '', ( #220 ) ) ;
#74 = PERSON_AND_ORGANIZATION_ROLE ( 'design_supplier' ) ;
#75 = COORDINATED_UNIVERSAL_TIME_OFFSET ( 8, 0, .AHEAD. ) ;
#76 = PRODUCT_DEFINITION_FORMATION_WITH_SPECIFIED_SOURCE ( 'ÈÎºÎ', '', #223, .NOT_KNOWN. ) ;
#77 = COORDINATED_UNIVERSAL_TIME_OFFSET ( 8, 0, .AHEAD. ) ;
#78 = VERTEX_POINT ( 'NONE', #193 ) ;
#79 = LOCAL_TIME ( 14, 46, 57.00000000000000000, #245 ) ;
#80 = CC_DESIGN_PERSON_AND_ORGANIZATION_ASSIGNMENT ( #69, #195, ( #223 ) ) ;
#81 = VECTOR ( 'NONE', #189, 1000.000000000000000 ) ;
#82 = CARTESIAN_POINT ( 'NONE',  ( -12.50000000000000000, 0.0000000000000000000, 6.000000000000000000 ) ) ;
#83 = CARTESIAN_POINT ( 'NONE',  ( 0.0000000000000000000, 0.0000000000000000000, 0.0000000000000000000 ) ) ;
#84 = ORIENTED_EDGE ( 'NONE', *, *, #118, .T. ) ;
#85 = DIRECTION ( 'NONE',  ( 0.0000000000000000000, 0.0000000000000000000, 1.000000000000000000 ) ) ;
#86 = AXIS2_PLACEMENT_3D ( 'NONE', #104, #48, #234 ) ;
#87 = CC_DESIGN_DATE_AND_TIME_ASSIGNMENT ( #93, #154, ( #133 ) ) ;
#88 = APPROVAL_STATUS ( 'not_yet_approved' ) ;
#89 = ORIENTED_EDGE ( 'NONE', *, *, #24, .T. ) ;
#90 = DATE_TIME_ROLE ( 'classification_date' ) ;
#91 = UNCERTAINTY_MEASURE_WITH_UNIT (LENGTH_MEASURE( 1.000000000000000100E-005 ), #149, 'distance_accuracy_value', 'NONE');
#92 = COORDINATED_UNIVERSAL_TIME_OFFSET ( 8, 0, .AHEAD. ) ;
#93 = DATE_AND_TIME ( #109, #203 ) ;
#94 = MECHANICAL_CONTEXT ( 'NONE', #157, 'mechanical' ) ;
#95 = PRODUCT_DEFINITION_FORMATION_WITH_SPECIFIED_SOURCE ( 'ÈÎºÎ', '', #220, .NOT_KNOWN. ) ;
#96 = SHAPE_DEFINITION_REPRESENTATION ( #140, #146 ) ;
#97 = EDGE_LOOP ( 'NONE', ( #225, #89 ) ) ;
#98 = PERSON_AND_ORGANIZATION ( #182, #175 ) ;
#99 = APPROVAL ( #176, 'Î´Ö¸¶¨' ) ;
#100 = ORIENTED_EDGE ( 'NONE', *, *, #139, .F. ) ;
#101 = DIRECTION ( 'NONE',  ( -0.0000000000000000000, -0.0000000000000000000, -1.000000000000000000 ) ) ;
#102 = DATE_AND_TIME ( #6, #12 ) ;
#103 = CC_DESIGN_PERSON_AND_ORGANIZATION_ASSIGNMENT ( #252, #159, ( #144 ) ) ;
#104 = CARTESIAN_POINT ( 'NONE',  ( 0.0000000000000000000, 0.0000000000000000000, 0.0000000000000000000 ) ) ;
#105 = CARTESIAN_POINT ( 'NONE',  ( 0.0000000000000000000, 0.0000000000000000000, 0.0000000000000000000 ) ) ;
#106 = PERSON_AND_ORGANIZATION_ROLE ( 'classification_officer' ) ;
#107 = SECURITY_CLASSIFICATION_LEVEL ( 'unclassified' ) ;
#108 = ADVANCED_FACE ( 'NONE', ( #67 ), #209, .F. ) ;
#109 = CALENDAR_DATE ( 2019, 21, 8 ) ;
#110 = APPROVAL ( #127, 'Î´Ö¸¶¨' ) ;
#111 = FACE_OUTER_BOUND ( 'NONE', #97, .T. ) ;
#112 = APPROVAL ( #55, 'Î´Ö¸¶¨' ) ;
#113 = AXIS2_PLACEMENT_3D ( 'NONE', #120, #190, #171 ) ;
#114 = DESIGN_CONTEXT ( 'detailed design', #215, 'design' ) ;
#115 = PERSON_AND_ORGANIZATION ( #182, #175 ) ;
#116 = EDGE_LOOP ( 'NONE', ( #100, #2, #244, #7 ) ) ;
#117 = PERSON_AND_ORGANIZATION ( #182, #175 ) ;
#118 = EDGE_CURVE ( 'NONE', #78, #4, #46, .T. ) ;
#119 = DIRECTION ( 'NONE',  ( -1.000000000000000000, 0.0000000000000000000, 0.0000000000000000000 ) ) ;
#120 = CARTESIAN_POINT ( 'NONE',  ( 0.0000000000000000000, 0.0000000000000000000, 6.000000000000000000 ) ) ;
#121 = PLANE ( 'NONE',  #161 ) ;
#122 = DATE_AND_TIME ( #170, #185 ) ;
#123 = FACE_OUTER_BOUND ( 'NONE', #116, .T. ) ;
#124 = CARTESIAN_POINT ( 'NONE',  ( 0.0000000000000000000, 0.0000000000000000000, 6.000000000000000000 ) ) ;
#125 = PRODUCT_RELATED_PRODUCT_CATEGORY ( 'detail', '', ( #223 ) ) ;
#126 = COORDINATED_UNIVERSAL_TIME_OFFSET ( 8, 0, .AHEAD. ) ;
#127 = APPROVAL_STATUS ( 'not_yet_approved' ) ;
#128 = AXIS2_PLACEMENT_3D ( 'NONE', #105, #247, #173 ) ;
#129 = DIRECTION ( 'NONE',  ( 1.000000000000000000, 0.0000000000000000000, -0.0000000000000000000 ) ) ;
#130 = DIRECTION ( 'NONE',  ( 1.000000000000000000, 0.0000000000000000000, 0.0000000000000000000 ) ) ;
#131 = PERSON_AND_ORGANIZATION_ROLE ( 'creator' ) ;
#132 = PERSON_AND_ORGANIZATION ( #182, #175 ) ;
#133 = SECURITY_CLASSIFICATION ( '', '', #212 ) ;
#134 = EDGE_LOOP ( 'NONE', ( #141, #153, #84, #52 ) ) ;
#135 = PERSON_AND_ORGANIZATION ( #182, #175 ) ;
#136 = ADVANCED_FACE ( 'NONE', ( #123 ), #64, .T. ) ;
#137 = CC_DESIGN_APPROVAL ( #110, ( #41 ) ) ;
#138 = LINE ( 'NONE', #66, #81 ) ;
#139 = EDGE_CURVE ( 'NONE', #181, #78, #22, .T. ) ;
#140 = PRODUCT_DEFINITION_SHAPE ( 'NONE', 'NONE',  #144 ) ;
#141 = ORIENTED_EDGE ( 'NONE', *, *, #24, .F. ) ;
#142 = CC_DESIGN_PERSON_AND_ORGANIZATION_ASSIGNMENT ( #135, #160, ( #41 ) ) ;
#143 = APPROVAL_DATE_TIME ( #102, #62 ) ;
#144 = PRODUCT_DEFINITION ( 'Î´Öª', '', #95, #114 ) ;
#145 = DATE_AND_TIME ( #156, #60 ) ;
#146 = ADVANCED_BREP_SHAPE_REPRESENTATION ( '416005', ( #30, #51 ), #9 ) ;
#147 = CARTESIAN_POINT ( 'NONE',  ( 12.50000000000000000, 1.530808498934191500E-015, 6.000000000000000000 ) ) ;
#148 = PERSON_AND_ORGANIZATION ( #182, #175 ) ;
#149 =( LENGTH_UNIT ( ) NAMED_UNIT ( * ) SI_UNIT ( .MILLI., .METRE. ) );
#150 = CC_DESIGN_PERSON_AND_ORGANIZATION_ASSIGNMENT ( #115, #39, ( #133 ) ) ;
#151 = DIRECTION ( 'NONE',  ( 1.000000000000000000, 0.0000000000000000000, 0.0000000000000000000 ) ) ;
#152 = CARTESIAN_POINT ( 'NONE',  ( -12.50000000000000000, 0.0000000000000000000, 0.0000000000000000000 ) ) ;
#153 = ORIENTED_EDGE ( 'NONE', *, *, #139, .T. ) ;
#154 = DATE_TIME_ROLE ( 'classification_date' ) ;
#155 = DATE_TIME_ROLE ( 'creation_date' ) ;
#156 = CALENDAR_DATE ( 2019, 21, 8 ) ;
#157 = APPLICATION_CONTEXT ( 'configuration controlled 3d designs of mechanical parts and assemblies' ) ;
#158 = DESIGN_CONTEXT ( 'detailed design', #37, 'design' ) ;
#159 = PERSON_AND_ORGANIZATION_ROLE ( 'creator' ) ;
#160 = PERSON_AND_ORGANIZATION_ROLE ( 'creator' ) ;
#161 = AXIS2_PLACEMENT_3D ( 'NONE', #124, #15, #129 ) ;
#162 = APPROVAL_PERSON_ORGANIZATION ( #222, #99, #241 ) ;
#163 = COORDINATED_UNIVERSAL_TIME_OFFSET ( 8, 0, .AHEAD. ) ;
#164 = CC_DESIGN_APPROVAL ( #112, ( #133 ) ) ;
#165 = COORDINATED_UNIVERSAL_TIME_OFFSET ( 8, 0, .AHEAD. ) ;
#166 = DATE_AND_TIME ( #236, #28 ) ;
#167 = EDGE_CURVE ( 'NONE', #186, #4, #138, .T. ) ;
#168 = DIRECTION ( 'NONE',  ( 0.0000000000000000000, 0.0000000000000000000, 1.000000000000000000 ) ) ;
#169 = DIRECTION ( 'NONE',  ( -1.000000000000000000, 0.0000000000000000000, 0.0000000000000000000 ) ) ;
#170 = CALENDAR_DATE ( 2019, 21, 8 ) ;
#171 = DIRECTION ( 'NONE',  ( 1.000000000000000000, 0.0000000000000000000, 0.0000000000000000000 ) ) ;
#172 = CC_DESIGN_APPROVAL ( #99, ( #76 ) ) ;
#173 = DIRECTION ( 'NONE',  ( 1.000000000000000000, 0.0000000000000000000, -0.0000000000000000000 ) ) ;
#174 = APPROVAL ( #88, 'Î´Ö¸¶¨' ) ;
#175 = ORGANIZATION ( 'Î´Ö¸¶¨', 'Î´Ö¸¶¨', '' ) ;
#176 = APPROVAL_STATUS ( 'not_yet_approved' ) ;
#177 = PERSON_AND_ORGANIZATION ( #182, #175 ) ;
#178 = APPROVAL_ROLE ( '' ) ;
#179 = PERSON_AND_ORGANIZATION_ROLE ( 'design_owner' ) ;
#180 = CC_DESIGN_PERSON_AND_ORGANIZATION_ASSIGNMENT ( #16, #179, ( #220 ) ) ;
#181 = VERTEX_POINT ( 'NONE', #147 ) ;
#182 = PERSON ( 'Î´Ö¸¶¨', 'Î´Ö¸¶¨', 'Î´Ö¸¶¨', ('Î´Ö¸¶¨'), ('Î´Ö¸¶¨'), ('Î´Ö¸¶¨') ) ;
#183 = EDGE_CURVE ( 'NONE', #4, #78, #35, .T. ) ;
#184 = APPROVAL_PERSON_ORGANIZATION ( #199, #174, #178 ) ;
#185 = LOCAL_TIME ( 14, 46, 57.00000000000000000, #242 ) ;
#186 = VERTEX_POINT ( 'NONE', #82 ) ;
#187 = CC_DESIGN_PERSON_AND_ORGANIZATION_ASSIGNMENT ( #148, #131, ( #76 ) ) ;
#188 = CALENDAR_DATE ( 2019, 21, 8 ) ;
#189 = DIRECTION ( 'NONE',  ( -0.0000000000000000000, -0.0000000000000000000, -1.000000000000000000 ) ) ;
#190 = DIRECTION ( 'NONE',  ( 0.0000000000000000000, 0.0000000000000000000, 1.000000000000000000 ) ) ;
#191 = PERSON_AND_ORGANIZATION ( #182, #175 ) ;
#192 = APPROVAL ( #57, 'Î´Ö¸¶¨' ) ;
#193 = CARTESIAN_POINT ( 'NONE',  ( 12.50000000000000000, 1.530808498934191500E-015, 0.0000000000000000000 ) ) ;
#194 = DATE_AND_TIME ( #188, #79 ) ;
#195 = PERSON_AND_ORGANIZATION_ROLE ( 'design_owner' ) ;
#196 = ORIENTED_EDGE ( 'NONE', *, *, #183, .F. ) ;
#197 = APPROVAL_ROLE ( '' ) ;
#198 = APPLICATION_PROTOCOL_DEFINITION ( 'international standard', 'config_control_design', 1994, #36 ) ;
#199 = PERSON_AND_ORGANIZATION ( #182, #175 ) ;
#200 = DATE_TIME_ROLE ( 'creation_date' ) ;
#201 = CC_DESIGN_PERSON_AND_ORGANIZATION_ASSIGNMENT ( #191, #74, ( #76 ) ) ;
#202 = VECTOR ( 'NONE', #210, 1000.000000000000000 ) ;
#203 = LOCAL_TIME ( 14, 46, 57.00000000000000000, #165 ) ;
#204 = EDGE_LOOP ( 'NONE', ( #196, #216 ) ) ;
#205 = CC_DESIGN_PERSON_AND_ORGANIZATION_ASSIGNMENT ( #229, #253, ( #95 ) ) ;
#206 = DATE_AND_TIME ( #3, #50 ) ;
#207 = AXIS2_PLACEMENT_3D ( 'NONE', #83, #85, #230 ) ;
#208 = CARTESIAN_POINT ( 'NONE',  ( 0.0000000000000000000, 0.0000000000000000000, 0.0000000000000000000 ) ) ;
#209 = PLANE ( 'NONE',  #128 ) ;
#210 = DIRECTION ( 'NONE',  ( -0.0000000000000000000, -0.0000000000000000000, -1.000000000000000000 ) ) ;
#211 = AXIS2_PLACEMENT_3D ( 'NONE', #208, #251, #130 ) ;
#212 = SECURITY_CLASSIFICATION_LEVEL ( 'unclassified' ) ;
#213 = CALENDAR_DATE ( 2019, 21, 8 ) ;
#214 = APPROVAL_DATE_TIME ( #166, #99 ) ;
#215 = APPLICATION_CONTEXT ( 'configuration controlled 3d designs of mechanical parts and assemblies' ) ;
#216 = ORIENTED_EDGE ( 'NONE', *, *, #118, .F. ) ;
#217 = APPROVAL_ROLE ( '' ) ;
#218 = DATE_AND_TIME ( #59, #42 ) ;
#219 = CC_DESIGN_APPROVAL ( #192, ( #95 ) ) ;
#220 = PRODUCT ( '416005', '416005', '', ( #53 ) ) ;
#221 = ADVANCED_FACE ( 'NONE', ( #111 ), #121, .T. ) ;
#222 = PERSON_AND_ORGANIZATION ( #182, #175 ) ;
#223 = PRODUCT ( '416005', '416005', '', ( #94 ) ) ;
#224 = PRODUCT_DEFINITION_SHAPE ( 'NONE', 'NONE',  #41 ) ;
#225 = ORIENTED_EDGE ( 'NONE', *, *, #10, .T. ) ;
#226 = APPROVAL_PERSON_ORGANIZATION ( #44, #110, #197 ) ;
#227 = CC_DESIGN_APPROVAL ( #62, ( #238 ) ) ;
#228 = COORDINATED_UNIVERSAL_TIME_OFFSET ( 8, 0, .AHEAD. ) ;
#229 = PERSON_AND_ORGANIZATION ( #182, #175 ) ;
#230 = DIRECTION ( 'NONE',  ( 1.000000000000000000, 0.0000000000000000000, 0.0000000000000000000 ) ) ;
#231 = CC_DESIGN_PERSON_AND_ORGANIZATION_ASSIGNMENT ( #239, #21, ( #95 ) ) ;
#232 = CARTESIAN_POINT ( 'NONE',  ( 12.50000000000000000, 1.530808498934191500E-015, 6.000000000000000000 ) ) ;
#233 = APPROVAL_DATE_TIME ( #122, #112 ) ;
#234 = DIRECTION ( 'NONE',  ( 1.000000000000000000, 0.0000000000000000000, 0.0000000000000000000 ) ) ;
#235 = DIRECTION ( 'NONE',  ( 1.000000000000000000, 0.0000000000000000000, 0.0000000000000000000 ) ) ;
#236 = CALENDAR_DATE ( 2019, 21, 8 ) ;
#237 = APPROVAL_ROLE ( '' ) ;
#238 = SECURITY_CLASSIFICATION ( '', '', #107 ) ;
#239 = PERSON_AND_ORGANIZATION ( #182, #175 ) ;
#240 = AXIS2_PLACEMENT_3D ( 'NONE', #11, #68, #169 ) ;
#241 = APPROVAL_ROLE ( '' ) ;
#242 = COORDINATED_UNIVERSAL_TIME_OFFSET ( 8, 0, .AHEAD. ) ;
#243 = LOCAL_TIME ( 14, 46, 57.00000000000000000, #77 ) ;
#244 = ORIENTED_EDGE ( 'NONE', *, *, #167, .T. ) ;
#245 = COORDINATED_UNIVERSAL_TIME_OFFSET ( 8, 0, .AHEAD. ) ;
#246 = AXIS2_PLACEMENT_3D ( 'NONE', #32, #168, #151 ) ;
#247 = DIRECTION ( 'NONE',  ( 0.0000000000000000000, 0.0000000000000000000, 1.000000000000000000 ) ) ;
#248 = APPROVAL_STATUS ( 'not_yet_approved' ) ;
#249 = CIRCLE ( 'NONE', #246, 12.50000000000000000 ) ;
#250 = DIRECTION ( 'NONE',  ( 0.0000000000000000000, 0.0000000000000000000, 1.000000000000000000 ) ) ;
#251 = DIRECTION ( 'NONE',  ( 0.0000000000000000000, 0.0000000000000000000, 1.000000000000000000 ) ) ;
#252 = PERSON_AND_ORGANIZATION ( #182, #175 ) ;
#253 = PERSON_AND_ORGANIZATION_ROLE ( 'creator' ) ;
ENDSEC;
END-ISO-10303-21;
