ISO-10303-21;
HEADER;
FILE_DESCRIPTION (( 'STEP AP203' ),
    '1' );
FILE_NAME ('416008.STEP',
    '2019-08-21T07:00:32',
    ( '' ),
    ( '' ),
    'SwSTEP 2.0',
    'SolidWorks 2016',
    '' );
FILE_SCHEMA (( 'CONFIG_CONTROL_DESIGN' ));
ENDSEC;

DATA;
#1 = CARTESIAN_POINT ( 'NONE',  ( 0.0000000000000000000, 0.0000000000000000000, 10.00000000000000000 ) ) ;
#2 = ORIENTED_EDGE ( 'NONE', *, *, #156, .T. ) ;
#3 = AXIS2_PLACEMENT_3D ( 'NONE', #225, #25, #107 ) ;
#4 = DIRECTION ( 'NONE',  ( 1.000000000000000000, 0.0000000000000000000, 0.0000000000000000000 ) ) ;
#5 = DATE_TIME_ROLE ( 'creation_date' ) ;
#6 = LOCAL_TIME ( 15, 0, 32.00000000000000000, #171 ) ;
#7 = ORIENTED_EDGE ( 'NONE', *, *, #16, .F. ) ;
#8 = AXIS2_PLACEMENT_3D ( 'NONE', #42, #20, #183 ) ;
#9 = LOCAL_TIME ( 15, 0, 32.00000000000000000, #108 ) ;
#10 = LOCAL_TIME ( 15, 0, 32.00000000000000000, #249 ) ;
#11 = CC_DESIGN_APPROVAL ( #63, ( #175 ) ) ;
#12 = PERSON_AND_ORGANIZATION ( #55, #31 ) ;
#13 = LINE ( 'NONE', #122, #179 ) ;
#14 = APPROVAL ( #194, 'Î´Ö¸¶¨' ) ;
#15 = PERSON_AND_ORGANIZATION ( #55, #31 ) ;
#16 = EDGE_CURVE ( 'NONE', #77, #56, #61, .T. ) ;
#17 = CALENDAR_DATE ( 2019, 21, 8 ) ;
#18 = VERTEX_POINT ( 'NONE', #164 ) ;
#19 = DIRECTION ( 'NONE',  ( -1.000000000000000000, 0.0000000000000000000, 0.0000000000000000000 ) ) ;
#20 = DIRECTION ( 'NONE',  ( 0.0000000000000000000, 0.0000000000000000000, 1.000000000000000000 ) ) ;
#21 = DATE_AND_TIME ( #97, #81 ) ;
#22 = CC_DESIGN_PERSON_AND_ORGANIZATION_ASSIGNMENT ( #106, #232, ( #162 ) ) ;
#23 = APPLICATION_PROTOCOL_DEFINITION ( 'international standard', 'config_control_design', 1994, #88 ) ;
#24 = APPLICATION_CONTEXT ( 'configuration controlled 3d designs of mechanical parts and assemblies' ) ;
#25 = DIRECTION ( 'NONE',  ( 0.0000000000000000000, 0.0000000000000000000, 1.000000000000000000 ) ) ;
#26 = APPROVAL_PERSON_ORGANIZATION ( #59, #103, #89 ) ;
#27 =( NAMED_UNIT ( * ) SI_UNIT ( $, .STERADIAN. ) SOLID_ANGLE_UNIT ( ) );
#28 = AXIS2_PLACEMENT_3D ( 'NONE', #202, #238, #127 ) ;
#29 = APPROVAL_STATUS ( 'not_yet_approved' ) ;
#30 = PRODUCT_DEFINITION_SHAPE ( 'NONE', 'NONE',  #243 ) ;
#31 = ORGANIZATION ( 'Î´Ö¸¶¨', 'Î´Ö¸¶¨', '' ) ;
#32 = CC_DESIGN_APPROVAL ( #150, ( #227 ) ) ;
#33 = COORDINATED_UNIVERSAL_TIME_OFFSET ( 8, 0, .AHEAD. ) ;
#34 = CC_DESIGN_DATE_AND_TIME_ASSIGNMENT ( #21, #113, ( #162 ) ) ;
#35 =( GEOMETRIC_REPRESENTATION_CONTEXT ( 3 ) GLOBAL_UNCERTAINTY_ASSIGNED_CONTEXT ( ( #209 ) ) GLOBAL_UNIT_ASSIGNED_CONTEXT ( ( #145, #206, #27 ) ) REPRESENTATION_CONTEXT ( 'NONE', 'WORKASPACE' ) );
#36 = CALENDAR_DATE ( 2019, 21, 8 ) ;
#37 = PRODUCT ( '416008', '416008', '', ( #46 ) ) ;
#38 = CALENDAR_DATE ( 2019, 21, 8 ) ;
#39 = APPROVAL_PERSON_ORGANIZATION ( #174, #125, #133 ) ;
#40 = CARTESIAN_POINT ( 'NONE',  ( 0.0000000000000000000, 0.0000000000000000000, 10.00000000000000000 ) ) ;
#41 = APPROVAL ( #169, 'Î´Ö¸¶¨' ) ;
#42 = CARTESIAN_POINT ( 'NONE',  ( 0.0000000000000000000, 0.0000000000000000000, 0.0000000000000000000 ) ) ;
#43 = CIRCLE ( 'NONE', #188, 19.05000000000000100 ) ;
#44 = DIRECTION ( 'NONE',  ( 1.000000000000000000, 0.0000000000000000000, -0.0000000000000000000 ) ) ;
#45 = PERSON_AND_ORGANIZATION_ROLE ( 'classification_officer' ) ;
#46 = MECHANICAL_CONTEXT ( 'NONE', #24, 'mechanical' ) ;
#47 = PERSON_AND_ORGANIZATION ( #55, #31 ) ;
#48 = CC_DESIGN_PERSON_AND_ORGANIZATION_ASSIGNMENT ( #47, #241, ( #227 ) ) ;
#49 = PERSON_AND_ORGANIZATION_ROLE ( 'creator' ) ;
#50 = AXIS2_PLACEMENT_3D ( 'NONE', #203, #60, #85 ) ;
#51 = EDGE_LOOP ( 'NONE', ( #124, #177, #218, #100 ) ) ;
#52 = LOCAL_TIME ( 15, 0, 32.00000000000000000, #129 ) ;
#53 = CLOSED_SHELL ( 'NONE', ( #105, #161, #220, #144 ) ) ;
#54 = LOCAL_TIME ( 15, 0, 32.00000000000000000, #142 ) ;
#55 = PERSON ( 'Î´Ö¸¶¨', 'Î´Ö¸¶¨', 'Î´Ö¸¶¨', ('Î´Ö¸¶¨'), ('Î´Ö¸¶¨'), ('Î´Ö¸¶¨') ) ;
#56 = VERTEX_POINT ( 'NONE', #201 ) ;
#57 = EDGE_CURVE ( 'NONE', #160, #56, #120, .T. ) ;
#58 = DIRECTION ( 'NONE',  ( -1.000000000000000000, 0.0000000000000000000, 0.0000000000000000000 ) ) ;
#59 = PERSON_AND_ORGANIZATION ( #55, #31 ) ;
#60 = DIRECTION ( 'NONE',  ( 0.0000000000000000000, 0.0000000000000000000, 1.000000000000000000 ) ) ;
#61 = CIRCLE ( 'NONE', #8, 19.05000000000000100 ) ;
#62 = PLANE ( 'NONE',  #50 ) ;
#63 = APPROVAL ( #208, 'Î´Ö¸¶¨' ) ;
#64 = CARTESIAN_POINT ( 'NONE',  ( 0.0000000000000000000, 0.0000000000000000000, 0.0000000000000000000 ) ) ;
#65 = COORDINATED_UNIVERSAL_TIME_OFFSET ( 8, 0, .AHEAD. ) ;
#66 = DATE_TIME_ROLE ( 'classification_date' ) ;
#67 = DIRECTION ( 'NONE',  ( 0.0000000000000000000, 0.0000000000000000000, 1.000000000000000000 ) ) ;
#68 = MECHANICAL_CONTEXT ( 'NONE', #88, 'mechanical' ) ;
#69 = PERSON_AND_ORGANIZATION ( #55, #31 ) ;
#70 = SECURITY_CLASSIFICATION ( '', '', #94 ) ;
#71 = FACE_OUTER_BOUND ( 'NONE', #140, .T. ) ;
#72 = PERSON_AND_ORGANIZATION_ROLE ( 'design_supplier' ) ;
#73 = APPROVAL_ROLE ( '' ) ;
#74 = CYLINDRICAL_SURFACE ( 'NONE', #119, 19.05000000000000100 ) ;
#75 = CC_DESIGN_PERSON_AND_ORGANIZATION_ASSIGNMENT ( #138, #45, ( #70 ) ) ;
#76 = LOCAL_TIME ( 15, 0, 32.00000000000000000, #141 ) ;
#77 = VERTEX_POINT ( 'NONE', #104 ) ;
#78 = PRODUCT_DEFINITION_SHAPE ( 'NONE', 'NONE',  #175 ) ;
#79 = CC_DESIGN_PERSON_AND_ORGANIZATION_ASSIGNMENT ( #123, #49, ( #243 ) ) ;
#80 = ORIENTED_EDGE ( 'NONE', *, *, #135, .F. ) ;
#81 = LOCAL_TIME ( 15, 0, 32.00000000000000000, #65 ) ;
#82 = APPROVAL_DATE_TIME ( #114, #63 ) ;
#83 = CARTESIAN_POINT ( 'NONE',  ( -19.05000000000000100, 0.0000000000000000000, 10.00000000000000000 ) ) ;
#84 = CC_DESIGN_APPROVAL ( #41, ( #243 ) ) ;
#85 = DIRECTION ( 'NONE',  ( 1.000000000000000000, 0.0000000000000000000, -0.0000000000000000000 ) ) ;
#86 = DIRECTION ( 'NONE',  ( 1.000000000000000000, 0.0000000000000000000, 0.0000000000000000000 ) ) ;
#87 = PERSON_AND_ORGANIZATION ( #55, #31 ) ;
#88 = APPLICATION_CONTEXT ( 'configuration controlled 3d designs of mechanical parts and assemblies' ) ;
#89 = APPROVAL_ROLE ( '' ) ;
#90 = PERSON_AND_ORGANIZATION_ROLE ( 'design_owner' ) ;
#91 = CC_DESIGN_DATE_AND_TIME_ASSIGNMENT ( #207, #66, ( #70 ) ) ;
#92 = LOCAL_TIME ( 15, 0, 32.00000000000000000, #200 ) ;
#93 = APPROVAL_DATE_TIME ( #109, #125 ) ;
#94 = SECURITY_CLASSIFICATION_LEVEL ( 'unclassified' ) ;
#95 = CC_DESIGN_APPROVAL ( #14, ( #162 ) ) ;
#96 = AXIS2_PLACEMENT_3D ( 'NONE', #1, #182, #44 ) ;
#97 = CALENDAR_DATE ( 2019, 21, 8 ) ;
#98 = LOCAL_TIME ( 15, 0, 32.00000000000000000, #33 ) ;
#99 = CC_DESIGN_DATE_AND_TIME_ASSIGNMENT ( #214, #231, ( #243 ) ) ;
#100 = ORIENTED_EDGE ( 'NONE', *, *, #57, .F. ) ;
#101 = CALENDAR_DATE ( 2019, 21, 8 ) ;
#102 = DATE_AND_TIME ( #191, #98 ) ;
#103 = APPROVAL ( #29, 'Î´Ö¸¶¨' ) ;
#104 = CARTESIAN_POINT ( 'NONE',  ( 19.05000000000000100, 2.332952152375708000E-015, 0.0000000000000000000 ) ) ;
#105 = ADVANCED_FACE ( 'NONE', ( #204 ), #152, .T. ) ;
#106 = PERSON_AND_ORGANIZATION ( #55, #31 ) ;
#107 = DIRECTION ( 'NONE',  ( 1.000000000000000000, 0.0000000000000000000, 0.0000000000000000000 ) ) ;
#108 = COORDINATED_UNIVERSAL_TIME_OFFSET ( 8, 0, .AHEAD. ) ;
#109 = DATE_AND_TIME ( #36, #52 ) ;
#110 = APPLICATION_PROTOCOL_DEFINITION ( 'international standard', 'config_control_design', 1994, #189 ) ;
#111 = APPROVAL_STATUS ( 'not_yet_approved' ) ;
#112 = CC_DESIGN_APPROVAL ( #103, ( #70 ) ) ;
#113 = DATE_TIME_ROLE ( 'classification_date' ) ;
#114 = DATE_AND_TIME ( #167, #9 ) ;
#115 = CC_DESIGN_SECURITY_CLASSIFICATION ( #70, ( #227 ) ) ;
#116 = ADVANCED_BREP_SHAPE_REPRESENTATION ( '416008', ( #245, #3 ), #35 ) ;
#117 = PERSON_AND_ORGANIZATION ( #55, #31 ) ;
#118 = FACE_OUTER_BOUND ( 'NONE', #223, .T. ) ;
#119 = AXIS2_PLACEMENT_3D ( 'NONE', #40, #165, #19 ) ;
#120 = LINE ( 'NONE', #83, #157 ) ;
#121 = PERSON_AND_ORGANIZATION ( #55, #31 ) ;
#122 = CARTESIAN_POINT ( 'NONE',  ( 19.05000000000000100, 2.332952152375708000E-015, 10.00000000000000000 ) ) ;
#123 = PERSON_AND_ORGANIZATION ( #55, #31 ) ;
#124 = ORIENTED_EDGE ( 'NONE', *, *, #147, .F. ) ;
#125 = APPROVAL ( #111, 'Î´Ö¸¶¨' ) ;
#126 = CARTESIAN_POINT ( 'NONE',  ( 0.0000000000000000000, 0.0000000000000000000, 10.00000000000000000 ) ) ;
#127 = DIRECTION ( 'NONE',  ( 1.000000000000000000, 0.0000000000000000000, 0.0000000000000000000 ) ) ;
#128 = ORIENTED_EDGE ( 'NONE', *, *, #197, .T. ) ;
#129 = COORDINATED_UNIVERSAL_TIME_OFFSET ( 8, 0, .AHEAD. ) ;
#130 = APPLICATION_PROTOCOL_DEFINITION ( 'international standard', 'config_control_design', 1994, #228 ) ;
#131 = PRODUCT_RELATED_PRODUCT_CATEGORY ( 'detail', '', ( #216 ) ) ;
#132 = APPROVAL_PERSON_ORGANIZATION ( #181, #41, #210 ) ;
#133 = APPROVAL_ROLE ( '' ) ;
#134 = CC_DESIGN_PERSON_AND_ORGANIZATION_ASSIGNMENT ( #121, #72, ( #193 ) ) ;
#135 = EDGE_CURVE ( 'NONE', #18, #77, #13, .T. ) ;
#136 = PERSON_AND_ORGANIZATION ( #55, #31 ) ;
#137 = CC_DESIGN_DATE_AND_TIME_ASSIGNMENT ( #102, #5, ( #175 ) ) ;
#138 = PERSON_AND_ORGANIZATION ( #55, #31 ) ;
#139 = CC_DESIGN_APPROVAL ( #125, ( #193 ) ) ;
#140 = EDGE_LOOP ( 'NONE', ( #80, #235, #226, #2 ) ) ;
#141 = COORDINATED_UNIVERSAL_TIME_OFFSET ( 8, 0, .AHEAD. ) ;
#142 = COORDINATED_UNIVERSAL_TIME_OFFSET ( 8, 0, .AHEAD. ) ;
#143 = DIRECTION ( 'NONE',  ( 0.0000000000000000000, 0.0000000000000000000, 1.000000000000000000 ) ) ;
#144 = ADVANCED_FACE ( 'NONE', ( #172 ), #62, .F. ) ;
#145 =( LENGTH_UNIT ( ) NAMED_UNIT ( * ) SI_UNIT ( .MILLI., .METRE. ) );
#146 = CIRCLE ( 'NONE', #28, 19.05000000000000100 ) ;
#147 = EDGE_CURVE ( 'NONE', #18, #160, #43, .T. ) ;
#148 = CARTESIAN_POINT ( 'NONE',  ( 0.0000000000000000000, 0.0000000000000000000, 10.00000000000000000 ) ) ;
#149 = PERSON_AND_ORGANIZATION_ROLE ( 'creator' ) ;
#150 = APPROVAL ( #190, 'Î´Ö¸¶¨' ) ;
#151 = DATE_AND_TIME ( #154, #234 ) ;
#152 = CYLINDRICAL_SURFACE ( 'NONE', #211, 19.05000000000000100 ) ;
#153 = PERSON_AND_ORGANIZATION ( #55, #31 ) ;
#154 = CALENDAR_DATE ( 2019, 21, 8 ) ;
#155 = DATE_AND_TIME ( #180, #10 ) ;
#156 = EDGE_CURVE ( 'NONE', #56, #77, #251, .T. ) ;
#157 = VECTOR ( 'NONE', #185, 1000.000000000000000 ) ;
#158 = CC_DESIGN_PERSON_AND_ORGANIZATION_ASSIGNMENT ( #136, #192, ( #216 ) ) ;
#159 = DESIGN_CONTEXT ( 'detailed design', #189, 'design' ) ;
#160 = VERTEX_POINT ( 'NONE', #250 ) ;
#161 = ADVANCED_FACE ( 'NONE', ( #71 ), #74, .T. ) ;
#162 = SECURITY_CLASSIFICATION ( '', '', #213 ) ;
#163 = EDGE_LOOP ( 'NONE', ( #230, #7 ) ) ;
#164 = CARTESIAN_POINT ( 'NONE',  ( 19.05000000000000100, 2.332952152375708000E-015, 10.00000000000000000 ) ) ;
#165 = DIRECTION ( 'NONE',  ( -0.0000000000000000000, -0.0000000000000000000, -1.000000000000000000 ) ) ;
#166 = APPROVAL_ROLE ( '' ) ;
#167 = CALENDAR_DATE ( 2019, 21, 8 ) ;
#168 = APPLICATION_PROTOCOL_DEFINITION ( 'international standard', 'config_control_design', 1994, #24 ) ;
#169 = APPROVAL_STATUS ( 'not_yet_approved' ) ;
#170 = CC_DESIGN_PERSON_AND_ORGANIZATION_ASSIGNMENT ( #87, #90, ( #37 ) ) ;
#171 = COORDINATED_UNIVERSAL_TIME_OFFSET ( 8, 0, .AHEAD. ) ;
#172 = FACE_OUTER_BOUND ( 'NONE', #163, .T. ) ;
#173 = APPROVAL_PERSON_ORGANIZATION ( #15, #63, #166 ) ;
#174 = PERSON_AND_ORGANIZATION ( #55, #31 ) ;
#175 = PRODUCT_DEFINITION ( 'Î´Öª', '', #227, #159 ) ;
#176 = APPROVAL_DATE_TIME ( #229, #41 ) ;
#177 = ORIENTED_EDGE ( 'NONE', *, *, #135, .T. ) ;
#178 = CC_DESIGN_PERSON_AND_ORGANIZATION_ASSIGNMENT ( #69, #149, ( #227 ) ) ;
#179 = VECTOR ( 'NONE', #221, 1000.000000000000000 ) ;
#180 = CALENDAR_DATE ( 2019, 21, 8 ) ;
#181 = PERSON_AND_ORGANIZATION ( #55, #31 ) ;
#182 = DIRECTION ( 'NONE',  ( 0.0000000000000000000, 0.0000000000000000000, 1.000000000000000000 ) ) ;
#183 = DIRECTION ( 'NONE',  ( 1.000000000000000000, 0.0000000000000000000, 0.0000000000000000000 ) ) ;
#184 = PRODUCT_RELATED_PRODUCT_CATEGORY ( 'detail', '', ( #37 ) ) ;
#185 = DIRECTION ( 'NONE',  ( -0.0000000000000000000, -0.0000000000000000000, -1.000000000000000000 ) ) ;
#186 = CC_DESIGN_PERSON_AND_ORGANIZATION_ASSIGNMENT ( #117, #239, ( #175 ) ) ;
#187 = CARTESIAN_POINT ( 'NONE',  ( 0.0000000000000000000, 0.0000000000000000000, 0.0000000000000000000 ) ) ;
#188 = AXIS2_PLACEMENT_3D ( 'NONE', #148, #143, #253 ) ;
#189 = APPLICATION_CONTEXT ( 'configuration controlled 3d designs of mechanical parts and assemblies' ) ;
#190 = APPROVAL_STATUS ( 'not_yet_approved' ) ;
#191 = CALENDAR_DATE ( 2019, 21, 8 ) ;
#192 = PERSON_AND_ORGANIZATION_ROLE ( 'design_owner' ) ;
#193 = PRODUCT_DEFINITION_FORMATION_WITH_SPECIFIED_SOURCE ( 'ÈÎºÎ', '', #37, .NOT_KNOWN. ) ;
#194 = APPROVAL_STATUS ( 'not_yet_approved' ) ;
#195 = SHAPE_DEFINITION_REPRESENTATION ( #30, #116 ) ;
#196 = DATE_AND_TIME ( #244, #6 ) ;
#197 = EDGE_CURVE ( 'NONE', #160, #18, #146, .T. ) ;
#198 = APPROVAL_DATE_TIME ( #155, #14 ) ;
#199 = AXIS2_PLACEMENT_3D ( 'NONE', #64, #205, #86 ) ;
#200 = COORDINATED_UNIVERSAL_TIME_OFFSET ( 8, 0, .AHEAD. ) ;
#201 = CARTESIAN_POINT ( 'NONE',  ( -19.05000000000000100, 0.0000000000000000000, 0.0000000000000000000 ) ) ;
#202 = CARTESIAN_POINT ( 'NONE',  ( 0.0000000000000000000, 0.0000000000000000000, 10.00000000000000000 ) ) ;
#203 = CARTESIAN_POINT ( 'NONE',  ( 0.0000000000000000000, 0.0000000000000000000, 0.0000000000000000000 ) ) ;
#204 = FACE_OUTER_BOUND ( 'NONE', #51, .T. ) ;
#205 = DIRECTION ( 'NONE',  ( 0.0000000000000000000, 0.0000000000000000000, 1.000000000000000000 ) ) ;
#206 =( NAMED_UNIT ( * ) PLANE_ANGLE_UNIT ( ) SI_UNIT ( $, .RADIAN. ) );
#207 = DATE_AND_TIME ( #38, #92 ) ;
#208 = APPROVAL_STATUS ( 'not_yet_approved' ) ;
#209 = UNCERTAINTY_MEASURE_WITH_UNIT (LENGTH_MEASURE( 1.000000000000000100E-005 ), #145, 'distance_accuracy_value', 'NONE');
#210 = APPROVAL_ROLE ( '' ) ;
#211 = AXIS2_PLACEMENT_3D ( 'NONE', #126, #237, #58 ) ;
#212 = APPROVAL_ROLE ( '' ) ;
#213 = SECURITY_CLASSIFICATION_LEVEL ( 'unclassified' ) ;
#214 = DATE_AND_TIME ( #101, #54 ) ;
#215 = CC_DESIGN_SECURITY_CLASSIFICATION ( #162, ( #193 ) ) ;
#216 = PRODUCT ( '416008', '416008', '', ( #68 ) ) ;
#217 = APPROVAL_DATE_TIME ( #196, #150 ) ;
#218 = ORIENTED_EDGE ( 'NONE', *, *, #16, .T. ) ;
#219 = AXIS2_PLACEMENT_3D ( 'NONE', #187, #67, #4 ) ;
#220 = ADVANCED_FACE ( 'NONE', ( #118 ), #224, .T. ) ;
#221 = DIRECTION ( 'NONE',  ( -0.0000000000000000000, -0.0000000000000000000, -1.000000000000000000 ) ) ;
#222 = APPROVAL_PERSON_ORGANIZATION ( #12, #150, #212 ) ;
#223 = EDGE_LOOP ( 'NONE', ( #128, #248 ) ) ;
#224 = PLANE ( 'NONE',  #96 ) ;
#225 = CARTESIAN_POINT ( 'NONE',  ( 0.0000000000000000000, 0.0000000000000000000, 0.0000000000000000000 ) ) ;
#226 = ORIENTED_EDGE ( 'NONE', *, *, #57, .T. ) ;
#227 = PRODUCT_DEFINITION_FORMATION_WITH_SPECIFIED_SOURCE ( 'ÈÎºÎ', '', #216, .NOT_KNOWN. ) ;
#228 = APPLICATION_CONTEXT ( 'configuration controlled 3d designs of mechanical parts and assemblies' ) ;
#229 = DATE_AND_TIME ( #17, #76 ) ;
#230 = ORIENTED_EDGE ( 'NONE', *, *, #156, .F. ) ;
#231 = DATE_TIME_ROLE ( 'creation_date' ) ;
#232 = PERSON_AND_ORGANIZATION_ROLE ( 'classification_officer' ) ;
#233 = APPROVAL_PERSON_ORGANIZATION ( #153, #14, #73 ) ;
#234 = LOCAL_TIME ( 15, 0, 32.00000000000000000, #236 ) ;
#235 = ORIENTED_EDGE ( 'NONE', *, *, #197, .F. ) ;
#236 = COORDINATED_UNIVERSAL_TIME_OFFSET ( 8, 0, .AHEAD. ) ;
#237 = DIRECTION ( 'NONE',  ( -0.0000000000000000000, -0.0000000000000000000, -1.000000000000000000 ) ) ;
#238 = DIRECTION ( 'NONE',  ( 0.0000000000000000000, 0.0000000000000000000, 1.000000000000000000 ) ) ;
#239 = PERSON_AND_ORGANIZATION_ROLE ( 'creator' ) ;
#240 = APPROVAL_DATE_TIME ( #151, #103 ) ;
#241 = PERSON_AND_ORGANIZATION_ROLE ( 'design_supplier' ) ;
#242 = PERSON_AND_ORGANIZATION_ROLE ( 'creator' ) ;
#243 = PRODUCT_DEFINITION ( 'Î´Öª', '', #193, #246 ) ;
#244 = CALENDAR_DATE ( 2019, 21, 8 ) ;
#245 = MANIFOLD_SOLID_BREP ( 'Í¹Ì¨-À­Éì1', #53 ) ;
#246 = DESIGN_CONTEXT ( 'detailed design', #228, 'design' ) ;
#247 = CC_DESIGN_PERSON_AND_ORGANIZATION_ASSIGNMENT ( #252, #242, ( #193 ) ) ;
#248 = ORIENTED_EDGE ( 'NONE', *, *, #147, .T. ) ;
#249 = COORDINATED_UNIVERSAL_TIME_OFFSET ( 8, 0, .AHEAD. ) ;
#250 = CARTESIAN_POINT ( 'NONE',  ( -19.05000000000000100, 0.0000000000000000000, 10.00000000000000000 ) ) ;
#251 = CIRCLE ( 'NONE', #199, 19.05000000000000100 ) ;
#252 = PERSON_AND_ORGANIZATION ( #55, #31 ) ;
#253 = DIRECTION ( 'NONE',  ( 1.000000000000000000, 0.0000000000000000000, 0.0000000000000000000 ) ) ;
ENDSEC;
END-ISO-10303-21;
