ISO-10303-21;
HEADER;
FILE_DESCRIPTION (( 'STEP AP203' ),
    '1' );
FILE_NAME ('416051.STEP',
    '2019-08-22T02:27:48',
    ( '' ),
    ( '' ),
    'SwSTEP 2.0',
    'SolidWorks 2016',
    '' );
FILE_SCHEMA (( 'CONFIG_CONTROL_DESIGN' ));
ENDSEC;

DATA;
#1 = DIRECTION ( 'NONE',  ( 1.000000000000000000, 0.0000000000000000000, 0.0000000000000000000 ) ) ;
#2 = LOCAL_TIME ( 10, 27, 48.00000000000000000, #165 ) ;
#3 = CARTESIAN_POINT ( 'NONE',  ( 0.0000000000000000000, 0.0000000000000000000, 0.0000000000000000000 ) ) ;
#4 = AXIS2_PLACEMENT_3D ( 'NONE', #3, #159, #39 ) ;
#5 = CARTESIAN_POINT ( 'NONE',  ( 0.0000000000000000000, 0.0000000000000000000, 10.00000000000000000 ) ) ;
#6 = MECHANICAL_CONTEXT ( 'NONE', #65, 'mechanical' ) ;
#7 = ADVANCED_FACE ( 'NONE', ( #167 ), #133, .T. ) ;
#8 = APPROVAL ( #221, 'Î´Ö¸¶¨' ) ;
#9 = CC_DESIGN_PERSON_AND_ORGANIZATION_ASSIGNMENT ( #33, #163, ( #43 ) ) ;
#10 = PERSON_AND_ORGANIZATION_ROLE ( 'design_supplier' ) ;
#11 = COORDINATED_UNIVERSAL_TIME_OFFSET ( 8, 0, .AHEAD. ) ;
#12 = CLOSED_SHELL ( 'NONE', ( #7, #160, #218, #42 ) ) ;
#13 = PRODUCT_DEFINITION_SHAPE ( 'NONE', 'NONE',  #69 ) ;
#14 = CC_DESIGN_PERSON_AND_ORGANIZATION_ASSIGNMENT ( #36, #100, ( #193 ) ) ;
#15 = APPROVAL ( #239, 'Î´Ö¸¶¨' ) ;
#16 = ORIENTED_EDGE ( 'NONE', *, *, #251, .T. ) ;
#17 = PERSON_AND_ORGANIZATION ( #34, #88 ) ;
#18 = LOCAL_TIME ( 10, 27, 48.00000000000000000, #177 ) ;
#19 = DIRECTION ( 'NONE',  ( -0.0000000000000000000, -0.0000000000000000000, -1.000000000000000000 ) ) ;
#20 = EDGE_CURVE ( 'NONE', #211, #148, #247, .T. ) ;
#21 = UNCERTAINTY_MEASURE_WITH_UNIT (LENGTH_MEASURE( 1.000000000000000100E-005 ), #175, 'distance_accuracy_value', 'NONE');
#22 = CARTESIAN_POINT ( 'NONE',  ( -15.00000000000000000, 0.0000000000000000000, 0.0000000000000000000 ) ) ;
#23 = PERSON_AND_ORGANIZATION ( #34, #88 ) ;
#24 = CC_DESIGN_APPROVAL ( #68, ( #43 ) ) ;
#25 = PERSON_AND_ORGANIZATION_ROLE ( 'design_supplier' ) ;
#26 = APPLICATION_PROTOCOL_DEFINITION ( 'international standard', 'config_control_design', 1994, #225 ) ;
#27 = LOCAL_TIME ( 10, 27, 48.00000000000000000, #11 ) ;
#28 = DATE_TIME_ROLE ( 'classification_date' ) ;
#29 = ORIENTED_EDGE ( 'NONE', *, *, #121, .T. ) ;
#30 = APPROVAL_PERSON_ORGANIZATION ( #66, #68, #164 ) ;
#31 = CALENDAR_DATE ( 2019, 22, 8 ) ;
#32 = CC_DESIGN_PERSON_AND_ORGANIZATION_ASSIGNMENT ( #227, #244, ( #250 ) ) ;
#33 = PERSON_AND_ORGANIZATION ( #34, #88 ) ;
#34 = PERSON ( 'Î´Ö¸¶¨', 'Î´Ö¸¶¨', 'Î´Ö¸¶¨', ('Î´Ö¸¶¨'), ('Î´Ö¸¶¨'), ('Î´Ö¸¶¨') ) ;
#35 = CC_DESIGN_SECURITY_CLASSIFICATION ( #43, ( #52 ) ) ;
#36 = PERSON_AND_ORGANIZATION ( #34, #88 ) ;
#37 = APPROVAL ( #107, 'Î´Ö¸¶¨' ) ;
#38 = PERSON_AND_ORGANIZATION ( #34, #88 ) ;
#39 = DIRECTION ( 'NONE',  ( 1.000000000000000000, 0.0000000000000000000, 0.0000000000000000000 ) ) ;
#40 = DIRECTION ( 'NONE',  ( 0.0000000000000000000, 0.0000000000000000000, 1.000000000000000000 ) ) ;
#41 = FACE_OUTER_BOUND ( 'NONE', #64, .T. ) ;
#42 = ADVANCED_FACE ( 'NONE', ( #41 ), #56, .F. ) ;
#43 = SECURITY_CLASSIFICATION ( '', '', #143 ) ;
#44 = APPLICATION_PROTOCOL_DEFINITION ( 'international standard', 'config_control_design', 1994, #65 ) ;
#45 = COORDINATED_UNIVERSAL_TIME_OFFSET ( 8, 0, .AHEAD. ) ;
#46 = CC_DESIGN_APPROVAL ( #15, ( #69 ) ) ;
#47 = EDGE_LOOP ( 'NONE', ( #245, #252, #16, #240 ) ) ;
#48 = APPROVAL_PERSON_ORGANIZATION ( #84, #37, #184 ) ;
#49 = CC_DESIGN_PERSON_AND_ORGANIZATION_ASSIGNMENT ( #173, #10, ( #52 ) ) ;
#50 = AXIS2_PLACEMENT_3D ( 'NONE', #78, #194, #141 ) ;
#51 = APPROVAL_DATE_TIME ( #110, #158 ) ;
#52 = PRODUCT_DEFINITION_FORMATION_WITH_SPECIFIED_SOURCE ( 'ÈÎºÎ', '', #250, .NOT_KNOWN. ) ;
#53 = COORDINATED_UNIVERSAL_TIME_OFFSET ( 8, 0, .AHEAD. ) ;
#54 = APPROVAL_DATE_TIME ( #127, #37 ) ;
#55 = AXIS2_PLACEMENT_3D ( 'NONE', #60, #116, #219 ) ;
#56 = PLANE ( 'NONE',  #50 ) ;
#57 = CARTESIAN_POINT ( 'NONE',  ( 0.0000000000000000000, 0.0000000000000000000, 0.0000000000000000000 ) ) ;
#58 = EDGE_LOOP ( 'NONE', ( #201, #153, #104, #138 ) ) ;
#59 = PRODUCT_DEFINITION ( 'Î´Öª', '', #150, #128 ) ;
#60 = CARTESIAN_POINT ( 'NONE',  ( 0.0000000000000000000, 0.0000000000000000000, 0.0000000000000000000 ) ) ;
#61 = DATE_AND_TIME ( #168, #2 ) ;
#62 = DIRECTION ( 'NONE',  ( 0.0000000000000000000, 0.0000000000000000000, 1.000000000000000000 ) ) ;
#63 = MECHANICAL_CONTEXT ( 'NONE', #225, 'mechanical' ) ;
#64 = EDGE_LOOP ( 'NONE', ( #144, #80 ) ) ;
#65 = APPLICATION_CONTEXT ( 'configuration controlled 3d designs of mechanical parts and assemblies' ) ;
#66 = PERSON_AND_ORGANIZATION ( #34, #88 ) ;
#67 =( NAMED_UNIT ( * ) PLANE_ANGLE_UNIT ( ) SI_UNIT ( $, .RADIAN. ) );
#68 = APPROVAL ( #203, 'Î´Ö¸¶¨' ) ;
#69 = PRODUCT_DEFINITION ( 'Î´Öª', '', #52, #71 ) ;
#70 = COORDINATED_UNIVERSAL_TIME_OFFSET ( 8, 0, .AHEAD. ) ;
#71 = DESIGN_CONTEXT ( 'detailed design', #103, 'design' ) ;
#72 = CALENDAR_DATE ( 2019, 22, 8 ) ;
#73 = COORDINATED_UNIVERSAL_TIME_OFFSET ( 8, 0, .AHEAD. ) ;
#74 = CC_DESIGN_PERSON_AND_ORGANIZATION_ASSIGNMENT ( #38, #83, ( #89 ) ) ;
#75 = CALENDAR_DATE ( 2019, 22, 8 ) ;
#76 = CC_DESIGN_PERSON_AND_ORGANIZATION_ASSIGNMENT ( #228, #180, ( #59 ) ) ;
#77 = LOCAL_TIME ( 10, 27, 48.00000000000000000, #131 ) ;
#78 = CARTESIAN_POINT ( 'NONE',  ( 0.0000000000000000000, 0.0000000000000000000, 0.0000000000000000000 ) ) ;
#79 = APPROVAL ( #217, 'Î´Ö¸¶¨' ) ;
#80 = ORIENTED_EDGE ( 'NONE', *, *, #207, .F. ) ;
#81 = DATE_AND_TIME ( #236, #106 ) ;
#82 = DIRECTION ( 'NONE',  ( -1.000000000000000000, 0.0000000000000000000, 0.0000000000000000000 ) ) ;
#83 = PERSON_AND_ORGANIZATION_ROLE ( 'classification_officer' ) ;
#84 = PERSON_AND_ORGANIZATION ( #34, #88 ) ;
#85 = DATE_TIME_ROLE ( 'creation_date' ) ;
#86 = VERTEX_POINT ( 'NONE', #235 ) ;
#87 = PERSON_AND_ORGANIZATION_ROLE ( 'creator' ) ;
#88 = ORGANIZATION ( 'Î´Ö¸¶¨', 'Î´Ö¸¶¨', '' ) ;
#89 = SECURITY_CLASSIFICATION ( '', '', #162 ) ;
#90 = PERSON_AND_ORGANIZATION ( #34, #88 ) ;
#91 = CC_DESIGN_PERSON_AND_ORGANIZATION_ASSIGNMENT ( #222, #87, ( #69 ) ) ;
#92 = MANIFOLD_SOLID_BREP ( 'Í¹Ì¨-À­Éì1', #12 ) ;
#93 = DIRECTION ( 'NONE',  ( 0.0000000000000000000, 0.0000000000000000000, 1.000000000000000000 ) ) ;
#94 = CARTESIAN_POINT ( 'NONE',  ( 15.00000000000000000, 1.836970198721029600E-015, 0.0000000000000000000 ) ) ;
#95 = APPROVAL_PERSON_ORGANIZATION ( #90, #15, #126 ) ;
#96 = DIRECTION ( 'NONE',  ( -0.0000000000000000000, -0.0000000000000000000, -1.000000000000000000 ) ) ;
#97 = DIRECTION ( 'NONE',  ( 0.0000000000000000000, 0.0000000000000000000, 1.000000000000000000 ) ) ;
#98 = PLANE ( 'NONE',  #234 ) ;
#99 = PERSON_AND_ORGANIZATION ( #34, #88 ) ;
#100 = PERSON_AND_ORGANIZATION_ROLE ( 'design_owner' ) ;
#101 = APPLICATION_PROTOCOL_DEFINITION ( 'international standard', 'config_control_design', 1994, #103 ) ;
#102 = CIRCLE ( 'NONE', #189, 15.00000000000000000 ) ;
#103 = APPLICATION_CONTEXT ( 'configuration controlled 3d designs of mechanical parts and assemblies' ) ;
#104 = ORIENTED_EDGE ( 'NONE', *, *, #207, .T. ) ;
#105 = PERSON_AND_ORGANIZATION_ROLE ( 'creator' ) ;
#106 = LOCAL_TIME ( 10, 27, 48.00000000000000000, #73 ) ;
#107 = APPROVAL_STATUS ( 'not_yet_approved' ) ;
#108 = CC_DESIGN_DATE_AND_TIME_ASSIGNMENT ( #115, #85, ( #59 ) ) ;
#109 = LINE ( 'NONE', #176, #205 ) ;
#110 = DATE_AND_TIME ( #72, #212 ) ;
#111 = EDGE_CURVE ( 'NONE', #86, #211, #130, .T. ) ;
#112 = APPROVAL_DATE_TIME ( #215, #68 ) ;
#113 = EDGE_CURVE ( 'NONE', #210, #148, #188, .T. ) ;
#114 = APPROVAL_DATE_TIME ( #149, #8 ) ;
#115 = DATE_AND_TIME ( #171, #77 ) ;
#116 = DIRECTION ( 'NONE',  ( 0.0000000000000000000, 0.0000000000000000000, 1.000000000000000000 ) ) ;
#117 = DIRECTION ( 'NONE',  ( -1.000000000000000000, 0.0000000000000000000, 0.0000000000000000000 ) ) ;
#118 = CC_DESIGN_PERSON_AND_ORGANIZATION_ASSIGNMENT ( #139, #25, ( #150 ) ) ;
#119 = CARTESIAN_POINT ( 'NONE',  ( 0.0000000000000000000, 0.0000000000000000000, 10.00000000000000000 ) ) ;
#120 = PERSON_AND_ORGANIZATION ( #34, #88 ) ;
#121 = EDGE_CURVE ( 'NONE', #211, #86, #187, .T. ) ;
#122 = DIRECTION ( 'NONE',  ( 1.000000000000000000, 0.0000000000000000000, -0.0000000000000000000 ) ) ;
#123 = APPROVAL_ROLE ( '' ) ;
#124 = APPROVAL_ROLE ( '' ) ;
#125 = APPROVAL_PERSON_ORGANIZATION ( #17, #158, #142 ) ;
#126 = APPROVAL_ROLE ( '' ) ;
#127 = DATE_AND_TIME ( #140, #186 ) ;
#128 = DESIGN_CONTEXT ( 'detailed design', #182, 'design' ) ;
#129 = CALENDAR_DATE ( 2019, 22, 8 ) ;
#130 = CIRCLE ( 'NONE', #224, 15.00000000000000000 ) ;
#131 = COORDINATED_UNIVERSAL_TIME_OFFSET ( 8, 0, .AHEAD. ) ;
#132 = CC_DESIGN_APPROVAL ( #8, ( #89 ) ) ;
#133 = CYLINDRICAL_SURFACE ( 'NONE', #197, 15.00000000000000000 ) ;
#134 = LOCAL_TIME ( 10, 27, 48.00000000000000000, #190 ) ;
#135 = DIRECTION ( 'NONE',  ( 1.000000000000000000, 0.0000000000000000000, 0.0000000000000000000 ) ) ;
#136 = CC_DESIGN_PERSON_AND_ORGANIZATION_ASSIGNMENT ( #120, #246, ( #52 ) ) ;
#137 = CARTESIAN_POINT ( 'NONE',  ( 0.0000000000000000000, 0.0000000000000000000, 0.0000000000000000000 ) ) ;
#138 = ORIENTED_EDGE ( 'NONE', *, *, #251, .F. ) ;
#139 = PERSON_AND_ORGANIZATION ( #34, #88 ) ;
#140 = CALENDAR_DATE ( 2019, 22, 8 ) ;
#141 = DIRECTION ( 'NONE',  ( 1.000000000000000000, 0.0000000000000000000, -0.0000000000000000000 ) ) ;
#142 = APPROVAL_ROLE ( '' ) ;
#143 = SECURITY_CLASSIFICATION_LEVEL ( 'unclassified' ) ;
#144 = ORIENTED_EDGE ( 'NONE', *, *, #113, .F. ) ;
#145 = SHAPE_DEFINITION_REPRESENTATION ( #220, #185 ) ;
#146 = PRODUCT_RELATED_PRODUCT_CATEGORY ( 'detail', '', ( #193 ) ) ;
#147 = AXIS2_PLACEMENT_3D ( 'NONE', #214, #97, #135 ) ;
#148 = VERTEX_POINT ( 'NONE', #94 ) ;
#149 = DATE_AND_TIME ( #204, #206 ) ;
#150 = PRODUCT_DEFINITION_FORMATION_WITH_SPECIFIED_SOURCE ( 'ÈÎºÎ', '', #193, .NOT_KNOWN. ) ;
#151 = AXIS2_PLACEMENT_3D ( 'NONE', #161, #19, #82 ) ;
#152 = CARTESIAN_POINT ( 'NONE',  ( 0.0000000000000000000, 0.0000000000000000000, 10.00000000000000000 ) ) ;
#153 = ORIENTED_EDGE ( 'NONE', *, *, #20, .T. ) ;
#154 = DATE_AND_TIME ( #202, #27 ) ;
#155 = EDGE_LOOP ( 'NONE', ( #230, #29 ) ) ;
#156 = CARTESIAN_POINT ( 'NONE',  ( 15.00000000000000000, 1.836970198721029600E-015, 10.00000000000000000 ) ) ;
#157 = CYLINDRICAL_SURFACE ( 'NONE', #151, 15.00000000000000000 ) ;
#158 = APPROVAL ( #223, 'Î´Ö¸¶¨' ) ;
#159 = DIRECTION ( 'NONE',  ( 0.0000000000000000000, 0.0000000000000000000, 1.000000000000000000 ) ) ;
#160 = ADVANCED_FACE ( 'NONE', ( #231 ), #157, .T. ) ;
#161 = CARTESIAN_POINT ( 'NONE',  ( 0.0000000000000000000, 0.0000000000000000000, 10.00000000000000000 ) ) ;
#162 = SECURITY_CLASSIFICATION_LEVEL ( 'unclassified' ) ;
#163 = PERSON_AND_ORGANIZATION_ROLE ( 'classification_officer' ) ;
#164 = APPROVAL_ROLE ( '' ) ;
#165 = COORDINATED_UNIVERSAL_TIME_OFFSET ( 8, 0, .AHEAD. ) ;
#166 = AXIS2_PLACEMENT_3D ( 'NONE', #137, #62, #243 ) ;
#167 = FACE_OUTER_BOUND ( 'NONE', #58, .T. ) ;
#168 = CALENDAR_DATE ( 2019, 22, 8 ) ;
#169 = CC_DESIGN_DATE_AND_TIME_ASSIGNMENT ( #81, #28, ( #43 ) ) ;
#170 = FACE_OUTER_BOUND ( 'NONE', #155, .T. ) ;
#171 = CALENDAR_DATE ( 2019, 22, 8 ) ;
#172 = CC_DESIGN_APPROVAL ( #79, ( #59 ) ) ;
#173 = PERSON_AND_ORGANIZATION ( #34, #88 ) ;
#174 = CC_DESIGN_DATE_AND_TIME_ASSIGNMENT ( #154, #199, ( #89 ) ) ;
#175 =( LENGTH_UNIT ( ) NAMED_UNIT ( * ) SI_UNIT ( .MILLI., .METRE. ) );
#176 = CARTESIAN_POINT ( 'NONE',  ( -15.00000000000000000, 0.0000000000000000000, 10.00000000000000000 ) ) ;
#177 = COORDINATED_UNIVERSAL_TIME_OFFSET ( 8, 0, .AHEAD. ) ;
#178 = DIRECTION ( 'NONE',  ( -0.0000000000000000000, -0.0000000000000000000, -1.000000000000000000 ) ) ;
#179 = CC_DESIGN_PERSON_AND_ORGANIZATION_ASSIGNMENT ( #181, #105, ( #150 ) ) ;
#180 = PERSON_AND_ORGANIZATION_ROLE ( 'creator' ) ;
#181 = PERSON_AND_ORGANIZATION ( #34, #88 ) ;
#182 = APPLICATION_CONTEXT ( 'configuration controlled 3d designs of mechanical parts and assemblies' ) ;
#183 = APPROVAL_DATE_TIME ( #232, #79 ) ;
#184 = APPROVAL_ROLE ( '' ) ;
#185 = ADVANCED_BREP_SHAPE_REPRESENTATION ( '416051', ( #92, #55 ), #209 ) ;
#186 = LOCAL_TIME ( 10, 27, 48.00000000000000000, #229 ) ;
#187 = CIRCLE ( 'NONE', #147, 15.00000000000000000 ) ;
#188 = CIRCLE ( 'NONE', #4, 15.00000000000000000 ) ;
#189 = AXIS2_PLACEMENT_3D ( 'NONE', #57, #237, #1 ) ;
#190 = COORDINATED_UNIVERSAL_TIME_OFFSET ( 8, 0, .AHEAD. ) ;
#191 = DATE_AND_TIME ( #75, #249 ) ;
#192 = VECTOR ( 'NONE', #216, 1000.000000000000000 ) ;
#193 = PRODUCT ( '416051', '416051', '', ( #6 ) ) ;
#194 = DIRECTION ( 'NONE',  ( 0.0000000000000000000, 0.0000000000000000000, 1.000000000000000000 ) ) ;
#195 = APPROVAL_DATE_TIME ( #191, #15 ) ;
#196 = CC_DESIGN_DATE_AND_TIME_ASSIGNMENT ( #61, #241, ( #69 ) ) ;
#197 = AXIS2_PLACEMENT_3D ( 'NONE', #152, #96, #117 ) ;
#198 =( NAMED_UNIT ( * ) SI_UNIT ( $, .STERADIAN. ) SOLID_ANGLE_UNIT ( ) );
#199 = DATE_TIME_ROLE ( 'classification_date' ) ;
#200 = APPLICATION_PROTOCOL_DEFINITION ( 'international standard', 'config_control_design', 1994, #182 ) ;
#201 = ORIENTED_EDGE ( 'NONE', *, *, #121, .F. ) ;
#202 = CALENDAR_DATE ( 2019, 22, 8 ) ;
#203 = APPROVAL_STATUS ( 'not_yet_approved' ) ;
#204 = CALENDAR_DATE ( 2019, 22, 8 ) ;
#205 = VECTOR ( 'NONE', #178, 1000.000000000000000 ) ;
#206 = LOCAL_TIME ( 10, 27, 48.00000000000000000, #53 ) ;
#207 = EDGE_CURVE ( 'NONE', #148, #210, #102, .T. ) ;
#208 = CC_DESIGN_APPROVAL ( #37, ( #52 ) ) ;
#209 =( GEOMETRIC_REPRESENTATION_CONTEXT ( 3 ) GLOBAL_UNCERTAINTY_ASSIGNED_CONTEXT ( ( #21 ) ) GLOBAL_UNIT_ASSIGNED_CONTEXT ( ( #175, #67, #198 ) ) REPRESENTATION_CONTEXT ( 'NONE', 'WORKASPACE' ) );
#210 = VERTEX_POINT ( 'NONE', #22 ) ;
#211 = VERTEX_POINT ( 'NONE', #156 ) ;
#212 = LOCAL_TIME ( 10, 27, 48.00000000000000000, #45 ) ;
#213 = CC_DESIGN_APPROVAL ( #158, ( #150 ) ) ;
#214 = CARTESIAN_POINT ( 'NONE',  ( 0.0000000000000000000, 0.0000000000000000000, 10.00000000000000000 ) ) ;
#215 = DATE_AND_TIME ( #129, #18 ) ;
#216 = DIRECTION ( 'NONE',  ( -0.0000000000000000000, -0.0000000000000000000, -1.000000000000000000 ) ) ;
#217 = APPROVAL_STATUS ( 'not_yet_approved' ) ;
#218 = ADVANCED_FACE ( 'NONE', ( #170 ), #98, .T. ) ;
#219 = DIRECTION ( 'NONE',  ( 1.000000000000000000, 0.0000000000000000000, 0.0000000000000000000 ) ) ;
#220 = PRODUCT_DEFINITION_SHAPE ( 'NONE', 'NONE',  #59 ) ;
#221 = APPROVAL_STATUS ( 'not_yet_approved' ) ;
#222 = PERSON_AND_ORGANIZATION ( #34, #88 ) ;
#223 = APPROVAL_STATUS ( 'not_yet_approved' ) ;
#224 = AXIS2_PLACEMENT_3D ( 'NONE', #119, #93, #238 ) ;
#225 = APPLICATION_CONTEXT ( 'configuration controlled 3d designs of mechanical parts and assemblies' ) ;
#226 = CC_DESIGN_SECURITY_CLASSIFICATION ( #89, ( #150 ) ) ;
#227 = PERSON_AND_ORGANIZATION ( #34, #88 ) ;
#228 = PERSON_AND_ORGANIZATION ( #34, #88 ) ;
#229 = COORDINATED_UNIVERSAL_TIME_OFFSET ( 8, 0, .AHEAD. ) ;
#230 = ORIENTED_EDGE ( 'NONE', *, *, #111, .T. ) ;
#231 = FACE_OUTER_BOUND ( 'NONE', #47, .T. ) ;
#232 = DATE_AND_TIME ( #31, #134 ) ;
#233 = CARTESIAN_POINT ( 'NONE',  ( 15.00000000000000000, 1.836970198721029600E-015, 10.00000000000000000 ) ) ;
#234 = AXIS2_PLACEMENT_3D ( 'NONE', #5, #40, #122 ) ;
#235 = CARTESIAN_POINT ( 'NONE',  ( -15.00000000000000000, 0.0000000000000000000, 10.00000000000000000 ) ) ;
#236 = CALENDAR_DATE ( 2019, 22, 8 ) ;
#237 = DIRECTION ( 'NONE',  ( 0.0000000000000000000, 0.0000000000000000000, 1.000000000000000000 ) ) ;
#238 = DIRECTION ( 'NONE',  ( 1.000000000000000000, 0.0000000000000000000, 0.0000000000000000000 ) ) ;
#239 = APPROVAL_STATUS ( 'not_yet_approved' ) ;
#240 = ORIENTED_EDGE ( 'NONE', *, *, #113, .T. ) ;
#241 = DATE_TIME_ROLE ( 'creation_date' ) ;
#242 = APPROVAL_PERSON_ORGANIZATION ( #23, #79, #124 ) ;
#243 = DIRECTION ( 'NONE',  ( 1.000000000000000000, 0.0000000000000000000, 0.0000000000000000000 ) ) ;
#244 = PERSON_AND_ORGANIZATION_ROLE ( 'design_owner' ) ;
#245 = ORIENTED_EDGE ( 'NONE', *, *, #20, .F. ) ;
#246 = PERSON_AND_ORGANIZATION_ROLE ( 'creator' ) ;
#247 = LINE ( 'NONE', #233, #192 ) ;
#248 = PRODUCT_RELATED_PRODUCT_CATEGORY ( 'detail', '', ( #250 ) ) ;
#249 = LOCAL_TIME ( 10, 27, 48.00000000000000000, #70 ) ;
#250 = PRODUCT ( '416051', '416051', '', ( #63 ) ) ;
#251 = EDGE_CURVE ( 'NONE', #86, #210, #109, .T. ) ;
#252 = ORIENTED_EDGE ( 'NONE', *, *, #111, .F. ) ;
#253 = APPROVAL_PERSON_ORGANIZATION ( #99, #8, #123 ) ;
ENDSEC;
END-ISO-10303-21;
