ISO-10303-21;
HEADER;
FILE_DESCRIPTION (( 'STEP AP203' ),
    '1' );
FILE_NAME ('691006.STEP',
    '2023-09-25T01:34:57',
    ( 'Windows User' ),
    ( 'P R C' ),
    'SwSTEP 2.0',
    'SolidWorks 2020',
    '' );
FILE_SCHEMA (( 'CONFIG_CONTROL_DESIGN' ));
ENDSEC;

DATA;
#1 = CARTESIAN_POINT ( 'NONE',  ( -16.03897813190012656, 0.000000000000000000, 11.65000000000000213 ) ) ;
#2 = CARTESIAN_POINT ( 'NONE',  ( -21.53897813190011945, 0.000000000000000000, 0.000000000000000000 ) ) ;
#3 = APPLICATION_CONTEXT ( 'configuration controlled 3d designs of mechanical parts and assemblies' ) ;
#4 = PLANE ( 'NONE',  #180 ) ;
#5 = CC_DESIGN_PERSON_AND_ORGANIZATION_ASSIGNMENT ( #128, #147, ( #43 ) ) ;
#6 = CARTESIAN_POINT ( 'NONE',  ( -21.53897813190012300, 0.000000000000000000, 13.15000000000000213 ) ) ;
#7 = DATE_TIME_ROLE ( 'creation_date' ) ;
#8 = CIRCLE ( 'NONE', #119, 20.50000000000000000 ) ;
#9 = APPLICATION_PROTOCOL_DEFINITION ( 'international standard', 'config_control_design', 1994, #112 ) ;
#10 = CALENDAR_DATE ( 2023, 25, 9 ) ;
#11 = LOCAL_TIME ( 9, 34, 57.00000000000000000, #199 ) ;
#12 = DIRECTION ( 'NONE',  ( 0.000000000000000000, 0.000000000000000000, 1.000000000000000000 ) ) ;
#13 = EDGE_LOOP ( 'NONE', ( #155 ) ) ;
#14 = EDGE_LOOP ( 'NONE', ( #188 ) ) ;
#15 = EDGE_LOOP ( 'NONE', ( #190 ) ) ;
#16 = EDGE_CURVE ( 'NONE', #174, #174, #8, .T. ) ;
#17 = EDGE_LOOP ( 'NONE', ( #56 ) ) ;
#18 = ADVANCED_BREP_SHAPE_REPRESENTATION ( '691006', ( #111, #218 ), #87 ) ;
#19 =( LENGTH_UNIT ( ) NAMED_UNIT ( * ) SI_UNIT ( .MILLI., .METRE. ) );
#20 = VERTEX_POINT ( 'NONE', #1 ) ;
#21 = VERTEX_POINT ( 'NONE', #42 ) ;
#22 = FACE_BOUND ( 'NONE', #245, .T. ) ;
#23 = CC_DESIGN_PERSON_AND_ORGANIZATION_ASSIGNMENT ( #85, #30, ( #92 ) ) ;
#24 = DIRECTION ( 'NONE',  ( -1.000000000000000000, -0.000000000000000000, -0.000000000000000000 ) ) ;
#25 = AXIS2_PLACEMENT_3D ( 'NONE', #167, #153, #115 ) ;
#26 = SHAPE_DEFINITION_REPRESENTATION ( #57, #18 ) ;
#27 = COORDINATED_UNIVERSAL_TIME_OFFSET ( 8, 0, .AHEAD. ) ;
#28 = EDGE_CURVE ( 'NONE', #193, #193, #39, .T. ) ;
#29 = CALENDAR_DATE ( 2023, 25, 9 ) ;
#30 = PERSON_AND_ORGANIZATION_ROLE ( 'creator' ) ;
#31 = APPROVAL_DATE_TIME ( #52, #67 ) ;
#32 = ORIENTED_EDGE ( 'NONE', *, *, #114, .T. ) ;
#33 = CIRCLE ( 'NONE', #172, 19.00000000000000000 ) ;
#34 = LOCAL_TIME ( 9, 34, 57.00000000000000000, #27 ) ;
#35 = FACE_OUTER_BOUND ( 'NONE', #170, .T. ) ;
#36 = CARTESIAN_POINT ( 'NONE',  ( -17.53897813190012300, 0.000000000000000000, 0.000000000000000000 ) ) ;
#37 = ADVANCED_FACE ( 'NONE', ( #116, #88 ), #131, .T. ) ;
#38 = DIRECTION ( 'NONE',  ( -0.000000000000000000, 0.000000000000000000, 1.000000000000000000 ) ) ;
#39 = CIRCLE ( 'NONE', #25, 13.15000000000000213 ) ;
#40 = FACE_BOUND ( 'NONE', #204, .T. ) ;
#41 = LOCAL_TIME ( 9, 34, 57.00000000000000000, #144 ) ;
#42 = CARTESIAN_POINT ( 'NONE',  ( -21.53897813190011945, 0.000000000000000000, 11.65000000000000213 ) ) ;
#43 = PRODUCT_DEFINITION ( 'Î´Öª', '', #92, #165 ) ;
#44 = DIRECTION ( 'NONE',  ( 1.000000000000000000, 0.000000000000000000, 0.000000000000000000 ) ) ;
#45 = CARTESIAN_POINT ( 'NONE',  ( -16.03897813190012656, 0.000000000000000000, 19.00000000000000000 ) ) ;
#46 = CIRCLE ( 'NONE', #184, 13.15000000000000036 ) ;
#47 = ORGANIZATION ( 'Î´Ö¸¶¨', 'Î´Ö¸¶¨', '' ) ;
#48 = VERTEX_POINT ( 'NONE', #117 ) ;
#49 = CARTESIAN_POINT ( 'NONE',  ( -16.03897813190012656, 0.000000000000000000, 0.000000000000000000 ) ) ;
#50 = APPROVAL_DATE_TIME ( #69, #162 ) ;
#51 = CC_DESIGN_SECURITY_CLASSIFICATION ( #235, ( #92 ) ) ;
#52 = DATE_AND_TIME ( #201, #41 ) ;
#53 = DATE_AND_TIME ( #126, #34 ) ;
#54 = APPROVAL_PERSON_ORGANIZATION ( #102, #162, #219 ) ;
#55 = AXIS2_PLACEMENT_3D ( 'NONE', #49, #140, #141 ) ;
#56 = ORIENTED_EDGE ( 'NONE', *, *, #105, .F. ) ;
#57 = PRODUCT_DEFINITION_SHAPE ( 'NONE', 'NONE',  #43 ) ;
#58 = ORIENTED_EDGE ( 'NONE', *, *, #242, .F. ) ;
#59 = UNCERTAINTY_MEASURE_WITH_UNIT (LENGTH_MEASURE( 1.000000000000000082E-05 ), #19, 'distance_accuracy_value', 'NONE');
#60 = FACE_OUTER_BOUND ( 'NONE', #15, .T. ) ;
#61 = DIRECTION ( 'NONE',  ( -0.000000000000000000, 0.000000000000000000, 1.000000000000000000 ) ) ;
#62 = ORIENTED_EDGE ( 'NONE', *, *, #73, .T. ) ;
#63 = AXIS2_PLACEMENT_3D ( 'NONE', #205, #225, #38 ) ;
#64 = DIRECTION ( 'NONE',  ( -1.000000000000000000, -0.000000000000000000, -0.000000000000000000 ) ) ;
#65 = FACE_OUTER_BOUND ( 'NONE', #113, .T. ) ;
#66 = DIRECTION ( 'NONE',  ( 0.000000000000000000, 0.000000000000000000, 1.000000000000000000 ) ) ;
#67 = APPROVAL ( #197, 'Î´Ö¸¶¨' ) ;
#68 = CYLINDRICAL_SURFACE ( 'NONE', #136, 19.00000000000000000 ) ;
#69 = DATE_AND_TIME ( #178, #156 ) ;
#70 = PRODUCT_RELATED_PRODUCT_CATEGORY ( 'detail', '', ( #130 ) ) ;
#71 = DIRECTION ( 'NONE',  ( 1.000000000000000000, 0.000000000000000000, 0.000000000000000000 ) ) ;
#72 = DATE_AND_TIME ( #10, #160 ) ;
#73 = EDGE_CURVE ( 'NONE', #20, #20, #145, .T. ) ;
#74 = ORIENTED_EDGE ( 'NONE', *, *, #232, .F. ) ;
#75 = EDGE_LOOP ( 'NONE', ( #189 ) ) ;
#76 = DIRECTION ( 'NONE',  ( -1.000000000000000000, -0.000000000000000000, -0.000000000000000000 ) ) ;
#77 = DIRECTION ( 'NONE',  ( -1.000000000000000000, 0.000000000000000000, -0.000000000000000000 ) ) ;
#78 = CC_DESIGN_DATE_AND_TIME_ASSIGNMENT ( #53, #7, ( #43 ) ) ;
#79 = ORIENTED_EDGE ( 'NONE', *, *, #101, .F. ) ;
#80 = FACE_OUTER_BOUND ( 'NONE', #168, .T. ) ;
#81 = CARTESIAN_POINT ( 'NONE',  ( -21.53897813190012300, 13.15000000000000213, 0.000000000000000000 ) ) ;
#82 = ADVANCED_FACE ( 'NONE', ( #35, #40 ), #186, .F. ) ;
#83 = CARTESIAN_POINT ( 'NONE',  ( -17.53897813190012656, 20.50000000000000000, 0.000000000000000000 ) ) ;
#84 = DIRECTION ( 'NONE',  ( 0.000000000000000000, 0.000000000000000000, 1.000000000000000000 ) ) ;
#85 = PERSON_AND_ORGANIZATION ( #152, #47 ) ;
#86 = PERSON_AND_ORGANIZATION ( #152, #47 ) ;
#87 =( GEOMETRIC_REPRESENTATION_CONTEXT ( 3 ) GLOBAL_UNCERTAINTY_ASSIGNED_CONTEXT ( ( #59 ) ) GLOBAL_UNIT_ASSIGNED_CONTEXT ( ( #19, #179, #238 ) ) REPRESENTATION_CONTEXT ( 'NONE', 'WORKASPACE' ) );
#88 = FACE_OUTER_BOUND ( 'NONE', #89, .T. ) ;
#89 = EDGE_LOOP ( 'NONE', ( #32 ) ) ;
#90 = EDGE_LOOP ( 'NONE', ( #129 ) ) ;
#91 = CIRCLE ( 'NONE', #96, 20.50000000000000000 ) ;
#92 = PRODUCT_DEFINITION_FORMATION_WITH_SPECIFIED_SOURCE ( 'ÈÎºÎ', '', #130, .NOT_KNOWN. ) ;
#93 = ORIENTED_EDGE ( 'NONE', *, *, #101, .T. ) ;
#94 = ADVANCED_FACE ( 'NONE', ( #60, #169 ), #227, .F. ) ;
#95 = ORIENTED_EDGE ( 'NONE', *, *, #28, .F. ) ;
#96 = AXIS2_PLACEMENT_3D ( 'NONE', #158, #24, #84 ) ;
#97 = DIRECTION ( 'NONE',  ( 0.000000000000000000, 0.000000000000000000, -1.000000000000000000 ) ) ;
#98 = CC_DESIGN_PERSON_AND_ORGANIZATION_ASSIGNMENT ( #163, #182, ( #235 ) ) ;
#99 = FACE_OUTER_BOUND ( 'NONE', #110, .T. ) ;
#100 = DIRECTION ( 'NONE',  ( 0.000000000000000000, 0.000000000000000000, 1.000000000000000000 ) ) ;
#101 = EDGE_CURVE ( 'NONE', #48, #48, #46, .T. ) ;
#102 = PERSON_AND_ORGANIZATION ( #152, #47 ) ;
#103 = PERSON_AND_ORGANIZATION_ROLE ( 'design_owner' ) ;
#104 = APPROVAL_DATE_TIME ( #149, #224 ) ;
#105 = EDGE_CURVE ( 'NONE', #212, #212, #33, .T. ) ;
#106 = SECURITY_CLASSIFICATION_LEVEL ( 'unclassified' ) ;
#107 = EDGE_LOOP ( 'NONE', ( #79 ) ) ;
#108 = AXIS2_PLACEMENT_3D ( 'NONE', #206, #151, #166 ) ;
#109 = CC_DESIGN_PERSON_AND_ORGANIZATION_ASSIGNMENT ( #202, #103, ( #130 ) ) ;
#110 = EDGE_LOOP ( 'NONE', ( #248 ) ) ;
#111 = MANIFOLD_SOLID_BREP ( 'Ðý×ª1', #234 ) ;
#112 = APPLICATION_CONTEXT ( 'configuration controlled 3d designs of mechanical parts and assemblies' ) ;
#113 = EDGE_LOOP ( 'NONE', ( #93 ) ) ;
#114 = EDGE_CURVE ( 'NONE', #137, #137, #91, .T. ) ;
#115 = DIRECTION ( 'NONE',  ( 0.000000000000000000, 0.000000000000000000, 1.000000000000000000 ) ) ;
#116 = FACE_OUTER_BOUND ( 'NONE', #14, .T. ) ;
#117 = CARTESIAN_POINT ( 'NONE',  ( -17.53897813190012300, 0.000000000000000000, 13.15000000000000036 ) ) ;
#118 = CARTESIAN_POINT ( 'NONE',  ( -17.53897813190012656, 0.000000000000000000, 20.50000000000000000 ) ) ;
#119 = AXIS2_PLACEMENT_3D ( 'NONE', #183, #76, #12 ) ;
#120 = FACE_BOUND ( 'NONE', #107, .T. ) ;
#121 = CC_DESIGN_APPROVAL ( #162, ( #235 ) ) ;
#122 = FACE_OUTER_BOUND ( 'NONE', #75, .T. ) ;
#123 = MECHANICAL_CONTEXT ( 'NONE', #112, 'mechanical' ) ;
#124 = AXIS2_PLACEMENT_3D ( 'NONE', #133, #77, #61 ) ;
#125 = APPROVAL_PERSON_ORGANIZATION ( #198, #224, #127 ) ;
#126 = CALENDAR_DATE ( 2023, 25, 9 ) ;
#127 = APPROVAL_ROLE ( '' ) ;
#128 = PERSON_AND_ORGANIZATION ( #152, #47 ) ;
#129 = ORIENTED_EDGE ( 'NONE', *, *, #232, .T. ) ;
#130 = PRODUCT ( '691006', '691006', '', ( #123 ) ) ;
#131 = CYLINDRICAL_SURFACE ( 'NONE', #108, 20.50000000000000000 ) ;
#132 = AXIS2_PLACEMENT_3D ( 'NONE', #249, #176, #66 ) ;
#133 = CARTESIAN_POINT ( 'NONE',  ( -11.03897813190012478, 19.00000000000000000, 0.000000000000000000 ) ) ;
#134 = DIRECTION ( 'NONE',  ( -1.000000000000000000, -0.000000000000000000, -0.000000000000000000 ) ) ;
#135 = DIRECTION ( 'NONE',  ( 0.000000000000000000, 0.000000000000000000, 1.000000000000000000 ) ) ;
#136 = AXIS2_PLACEMENT_3D ( 'NONE', #216, #64, #100 ) ;
#137 = VERTEX_POINT ( 'NONE', #210 ) ;
#138 = FACE_OUTER_BOUND ( 'NONE', #17, .T. ) ;
#139 = CC_DESIGN_DATE_AND_TIME_ASSIGNMENT ( #72, #161, ( #235 ) ) ;
#140 = DIRECTION ( 'NONE',  ( -1.000000000000000000, -0.000000000000000000, -0.000000000000000000 ) ) ;
#141 = DIRECTION ( 'NONE',  ( 0.000000000000000000, 0.000000000000000000, 1.000000000000000000 ) ) ;
#142 = FACE_OUTER_BOUND ( 'NONE', #203, .T. ) ;
#143 = APPLICATION_PROTOCOL_DEFINITION ( 'international standard', 'config_control_design', 1994, #3 ) ;
#144 = COORDINATED_UNIVERSAL_TIME_OFFSET ( 8, 0, .AHEAD. ) ;
#145 = CIRCLE ( 'NONE', #226, 11.65000000000000213 ) ;
#146 = CC_DESIGN_APPROVAL ( #67, ( #43 ) ) ;
#147 = PERSON_AND_ORGANIZATION_ROLE ( 'creator' ) ;
#148 = ADVANCED_FACE ( 'NONE', ( #99, #159 ), #191, .F. ) ;
#149 = DATE_AND_TIME ( #29, #11 ) ;
#150 = EDGE_LOOP ( 'NONE', ( #246 ) ) ;
#151 = DIRECTION ( 'NONE',  ( -1.000000000000000000, -0.000000000000000000, -0.000000000000000000 ) ) ;
#152 = PERSON ( 'Î´Ö¸¶¨', 'Î´Ö¸¶¨', 'Î´Ö¸¶¨', ('Î´Ö¸¶¨'), ('Î´Ö¸¶¨'), ('Î´Ö¸¶¨') ) ;
#153 = DIRECTION ( 'NONE',  ( -1.000000000000000000, -0.000000000000000000, -0.000000000000000000 ) ) ;
#154 = DIRECTION ( 'NONE',  ( 0.000000000000000000, 0.000000000000000000, 1.000000000000000000 ) ) ;
#155 = ORIENTED_EDGE ( 'NONE', *, *, #105, .T. ) ;
#156 = LOCAL_TIME ( 9, 34, 57.00000000000000000, #217 ) ;
#157 = DIRECTION ( 'NONE',  ( 0.000000000000000000, 0.000000000000000000, -1.000000000000000000 ) ) ;
#158 = CARTESIAN_POINT ( 'NONE',  ( -11.03897813190012123, 0.000000000000000000, 0.000000000000000000 ) ) ;
#159 = FACE_OUTER_BOUND ( 'NONE', #150, .T. ) ;
#160 = LOCAL_TIME ( 9, 34, 57.00000000000000000, #241 ) ;
#161 = DATE_TIME_ROLE ( 'classification_date' ) ;
#162 = APPROVAL ( #237, 'Î´Ö¸¶¨' ) ;
#163 = PERSON_AND_ORGANIZATION ( #152, #47 ) ;
#164 = PERSON_AND_ORGANIZATION_ROLE ( 'design_supplier' ) ;
#165 = DESIGN_CONTEXT ( 'detailed design', #3, 'design' ) ;
#166 = DIRECTION ( 'NONE',  ( 0.000000000000000000, 0.000000000000000000, 1.000000000000000000 ) ) ;
#167 = CARTESIAN_POINT ( 'NONE',  ( -21.53897813190012300, 0.000000000000000000, 0.000000000000000000 ) ) ;
#168 = EDGE_LOOP ( 'NONE', ( #95 ) ) ;
#169 = FACE_BOUND ( 'NONE', #13, .T. ) ;
#170 = EDGE_LOOP ( 'NONE', ( #74 ) ) ;
#171 = ADVANCED_FACE ( 'NONE', ( #22, #122 ), #231, .F. ) ;
#172 = AXIS2_PLACEMENT_3D ( 'NONE', #247, #228, #135 ) ;
#173 = CC_DESIGN_APPROVAL ( #224, ( #92 ) ) ;
#174 = VERTEX_POINT ( 'NONE', #118 ) ;
#175 = DIRECTION ( 'NONE',  ( 0.000000000000000000, 0.000000000000000000, 1.000000000000000000 ) ) ;
#176 = DIRECTION ( 'NONE',  ( -1.000000000000000000, -0.000000000000000000, -0.000000000000000000 ) ) ;
#177 = DIRECTION ( 'NONE',  ( 0.000000000000000000, 0.000000000000000000, 1.000000000000000000 ) ) ;
#178 = CALENDAR_DATE ( 2023, 25, 9 ) ;
#179 =( NAMED_UNIT ( * ) PLANE_ANGLE_UNIT ( ) SI_UNIT ( $, .RADIAN. ) );
#180 = AXIS2_PLACEMENT_3D ( 'NONE', #83, #44, #97 ) ;
#181 = PERSON_AND_ORGANIZATION ( #152, #47 ) ;
#182 = PERSON_AND_ORGANIZATION_ROLE ( 'classification_officer' ) ;
#183 = CARTESIAN_POINT ( 'NONE',  ( -17.53897813190012656, 0.000000000000000000, 0.000000000000000000 ) ) ;
#184 = AXIS2_PLACEMENT_3D ( 'NONE', #36, #134, #154 ) ;
#185 = AXIS2_PLACEMENT_3D ( 'NONE', #2, #211, #177 ) ;
#186 = PLANE ( 'NONE',  #63 ) ;
#187 = ADVANCED_FACE ( 'NONE', ( #120, #142 ), #4, .F. ) ;
#188 = ORIENTED_EDGE ( 'NONE', *, *, #16, .F. ) ;
#189 = ORIENTED_EDGE ( 'NONE', *, *, #28, .T. ) ;
#190 = ORIENTED_EDGE ( 'NONE', *, *, #114, .F. ) ;
#191 = CYLINDRICAL_SURFACE ( 'NONE', #132, 11.65000000000000213 ) ;
#192 = APPROVAL_PERSON_ORGANIZATION ( #86, #67, #220 ) ;
#193 = VERTEX_POINT ( 'NONE', #6 ) ;
#194 = ADVANCED_FACE ( 'NONE', ( #80, #65 ), #236, .T. ) ;
#195 = DIRECTION ( 'NONE',  ( 1.000000000000000000, 0.000000000000000000, 0.000000000000000000 ) ) ;
#196 = CARTESIAN_POINT ( 'NONE',  ( -48.59423298930125412, 0.000000000000000000, 0.000000000000000000 ) ) ;
#197 = APPROVAL_STATUS ( 'not_yet_approved' ) ;
#198 = PERSON_AND_ORGANIZATION ( #152, #47 ) ;
#199 = COORDINATED_UNIVERSAL_TIME_OFFSET ( 8, 0, .AHEAD. ) ;
#200 = ORIENTED_EDGE ( 'NONE', *, *, #16, .T. ) ;
#201 = CALENDAR_DATE ( 2023, 25, 9 ) ;
#202 = PERSON_AND_ORGANIZATION ( #152, #47 ) ;
#203 = EDGE_LOOP ( 'NONE', ( #200 ) ) ;
#204 = EDGE_LOOP ( 'NONE', ( #62 ) ) ;
#205 = CARTESIAN_POINT ( 'NONE',  ( -16.03897813190012656, 11.65000000000000213, 0.000000000000000000 ) ) ;
#206 = CARTESIAN_POINT ( 'NONE',  ( -48.59423298930125412, 0.000000000000000000, 0.000000000000000000 ) ) ;
#207 = ADVANCED_FACE ( 'NONE', ( #138, #233 ), #68, .F. ) ;
#208 = DIRECTION ( 'NONE',  ( 0.000000000000000000, 0.000000000000000000, 1.000000000000000000 ) ) ;
#209 = CIRCLE ( 'NONE', #55, 19.00000000000000000 ) ;
#210 = CARTESIAN_POINT ( 'NONE',  ( -11.03897813190012123, 0.000000000000000000, 20.50000000000000000 ) ) ;
#211 = DIRECTION ( 'NONE',  ( -1.000000000000000000, -0.000000000000000000, -0.000000000000000000 ) ) ;
#212 = VERTEX_POINT ( 'NONE', #229 ) ;
#213 = AXIS2_PLACEMENT_3D ( 'NONE', #196, #230, #175 ) ;
#214 = CIRCLE ( 'NONE', #185, 11.65000000000000213 ) ;
#215 = VERTEX_POINT ( 'NONE', #45 ) ;
#216 = CARTESIAN_POINT ( 'NONE',  ( -48.59423298930125412, 0.000000000000000000, 0.000000000000000000 ) ) ;
#217 = COORDINATED_UNIVERSAL_TIME_OFFSET ( 8, 0, .AHEAD. ) ;
#218 = AXIS2_PLACEMENT_3D ( 'NONE', #243, #240, #71 ) ;
#219 = APPROVAL_ROLE ( '' ) ;
#220 = APPROVAL_ROLE ( '' ) ;
#221 = CC_DESIGN_PERSON_AND_ORGANIZATION_ASSIGNMENT ( #181, #164, ( #92 ) ) ;
#222 = APPROVAL_STATUS ( 'not_yet_approved' ) ;
#223 = CARTESIAN_POINT ( 'NONE',  ( -16.03897813190012656, 0.000000000000000000, 0.000000000000000000 ) ) ;
#224 = APPROVAL ( #222, 'Î´Ö¸¶¨' ) ;
#225 = DIRECTION ( 'NONE',  ( -1.000000000000000000, 0.000000000000000000, -0.000000000000000000 ) ) ;
#226 = AXIS2_PLACEMENT_3D ( 'NONE', #223, #244, #208 ) ;
#227 = PLANE ( 'NONE',  #124 ) ;
#228 = DIRECTION ( 'NONE',  ( -1.000000000000000000, -0.000000000000000000, -0.000000000000000000 ) ) ;
#229 = CARTESIAN_POINT ( 'NONE',  ( -11.03897813190012123, 0.000000000000000000, 19.00000000000000000 ) ) ;
#230 = DIRECTION ( 'NONE',  ( -1.000000000000000000, -0.000000000000000000, -0.000000000000000000 ) ) ;
#231 = PLANE ( 'NONE',  #239 ) ;
#232 = EDGE_CURVE ( 'NONE', #215, #215, #209, .T. ) ;
#233 = FACE_OUTER_BOUND ( 'NONE', #90, .T. ) ;
#234 = CLOSED_SHELL ( 'NONE', ( #82, #148, #171, #194, #187, #37, #94, #207 ) ) ;
#235 = SECURITY_CLASSIFICATION ( '', '', #106 ) ;
#236 = CYLINDRICAL_SURFACE ( 'NONE', #213, 13.15000000000000213 ) ;
#237 = APPROVAL_STATUS ( 'not_yet_approved' ) ;
#238 =( NAMED_UNIT ( * ) SI_UNIT ( $, .STERADIAN. ) SOLID_ANGLE_UNIT ( ) );
#239 = AXIS2_PLACEMENT_3D ( 'NONE', #81, #195, #157 ) ;
#240 = DIRECTION ( 'NONE',  ( 0.000000000000000000, 0.000000000000000000, 1.000000000000000000 ) ) ;
#241 = COORDINATED_UNIVERSAL_TIME_OFFSET ( 8, 0, .AHEAD. ) ;
#242 = EDGE_CURVE ( 'NONE', #21, #21, #214, .T. ) ;
#243 = CARTESIAN_POINT ( 'NONE',  ( 0.000000000000000000, 0.000000000000000000, 0.000000000000000000 ) ) ;
#244 = DIRECTION ( 'NONE',  ( -1.000000000000000000, -0.000000000000000000, -0.000000000000000000 ) ) ;
#245 = EDGE_LOOP ( 'NONE', ( #58 ) ) ;
#246 = ORIENTED_EDGE ( 'NONE', *, *, #242, .T. ) ;
#247 = CARTESIAN_POINT ( 'NONE',  ( -11.03897813190012123, 0.000000000000000000, 0.000000000000000000 ) ) ;
#248 = ORIENTED_EDGE ( 'NONE', *, *, #73, .F. ) ;
#249 = CARTESIAN_POINT ( 'NONE',  ( -48.59423298930125412, 0.000000000000000000, 0.000000000000000000 ) ) ;
ENDSEC;
END-ISO-10303-21;
