ISO-10303-21;
HEADER;
FILE_DESCRIPTION (( 'STEP AP203' ),
    '1' );
FILE_NAME ('347500.STEP',
    '2021-02-07T03:51:00',
    ( '' ),
    ( '' ),
    'SwSTEP 2.0',
    'SolidWorks 2019',
    '' );
FILE_SCHEMA (( 'CONFIG_CONTROL_DESIGN' ));
ENDSEC;

DATA;
#1 = APPROVAL ( #14, 'Î´Ö¸¶¨' ) ;
#2 = ORIENTED_EDGE ( 'NONE', *, *, #47, .F. ) ;
#3 = ORIENTED_EDGE ( 'NONE', *, *, #95, .F. ) ;
#4 = DIRECTION ( 'NONE',  ( -0.7071067811865489050, 0.000000000000000000, -0.7071067811865461294 ) ) ;
#5 = CARTESIAN_POINT ( 'NONE',  ( -6.250000000000000000, 0.000000000000000000, 13.19806303505689016 ) ) ;
#6 = APPROVAL_ROLE ( '' ) ;
#7 = CC_DESIGN_SECURITY_CLASSIFICATION ( #9, ( #134 ) ) ;
#8 = COORDINATED_UNIVERSAL_TIME_OFFSET ( 8, 0, .AHEAD. ) ;
#9 = SECURITY_CLASSIFICATION ( '', '', #49 ) ;
#10 = VERTEX_POINT ( 'NONE', #76 ) ;
#11 = EDGE_CURVE ( 'NONE', #19, #129, #86, .T. ) ;
#12 = DIRECTION ( 'NONE',  ( 0.7071067811865461294, 0.000000000000000000, -0.7071067811865489050 ) ) ;
#13 = LINE ( 'NONE', #152, #103 ) ;
#14 = APPROVAL_STATUS ( 'not_yet_approved' ) ;
#15 = EDGE_CURVE ( 'NONE', #10, #124, #61, .T. ) ;
#16 = PLANE ( 'NONE',  #104 ) ;
#17 = APPROVAL_DATE_TIME ( #132, #1 ) ;
#18 = COORDINATED_UNIVERSAL_TIME_OFFSET ( 8, 0, .AHEAD. ) ;
#19 = VERTEX_POINT ( 'NONE', #111 ) ;
#20 = CARTESIAN_POINT ( 'NONE',  ( -6.250000000000002665, -12.50000000000000000, 13.19806303505688305 ) ) ;
#21 = APPROVAL_DATE_TIME ( #122, #99 ) ;
#22 = EDGE_LOOP ( 'NONE', ( #91, #79, #50, #2 ) ) ;
#23 = FACE_OUTER_BOUND ( 'NONE', #51, .T. ) ;
#24 = CARTESIAN_POINT ( 'NONE',  ( 6.250000000000000000, 7.654042494670955634E-16, 25.69806303505684042 ) ) ;
#25 = LOCAL_TIME ( 11, 51, 0.000000000000000000, #18 ) ;
#26 = DIRECTION ( 'NONE',  ( -1.000000000000000000, 0.000000000000000000, 0.000000000000000000 ) ) ;
#27 = CC_DESIGN_PERSON_AND_ORGANIZATION_ASSIGNMENT ( #159, #136, ( #134 ) ) ;
#28 = DIRECTION ( 'NONE',  ( -0.7071067811865460184, 0.000000000000000000, 0.7071067811865490160 ) ) ;
#29 = PERSON_AND_ORGANIZATION_ROLE ( 'creator' ) ;
#30 = COORDINATED_UNIVERSAL_TIME_OFFSET ( 8, 0, .AHEAD. ) ;
#31 = PERSON_AND_ORGANIZATION ( #127, #105 ) ;
#32 = ORIENTED_EDGE ( 'NONE', *, *, #11, .T. ) ;
#33 = CARTESIAN_POINT ( 'NONE',  ( -6.250000000000000000, 0.000000000000000000, 61.00000000000001421 ) ) ;
#34 = CALENDAR_DATE ( 2021, 7, 2 ) ;
#35 = CARTESIAN_POINT ( 'NONE',  ( 6.250000000000000000, 7.654042494670955634E-16, 24.28384947268374106 ) ) ;
#36 = APPROVAL_PERSON_ORGANIZATION ( #44, #64, #121 ) ;
#37 = CARTESIAN_POINT ( 'NONE',  ( 0.000000000000000000, 0.000000000000000000, 61.00000000000001421 ) ) ;
#38 = ORIENTED_EDGE ( 'NONE', *, *, #47, .T. ) ;
#39 = AXIS2_PLACEMENT_3D ( 'NONE', #43, #28, #68 ) ;
#40 = CARTESIAN_POINT ( 'NONE',  ( -6.250000000000000000, 0.000000000000000000, 11.78384947268379435 ) ) ;
#41 = APPLICATION_PROTOCOL_DEFINITION ( 'international standard', 'config_control_design', 1994, #108 ) ;
#42 = PERSON_AND_ORGANIZATION ( #127, #105 ) ;
#43 = CARTESIAN_POINT ( 'NONE',  ( -39.37834046142902622, -30.50000000000000711, -21.34449098874508977 ) ) ;
#44 = PERSON_AND_ORGANIZATION ( #127, #105 ) ;
#45 = PRODUCT_DEFINITION_SHAPE ( 'NONE', 'NONE',  #155 ) ;
#46 = CALENDAR_DATE ( 2021, 7, 2 ) ;
#47 = EDGE_CURVE ( 'NONE', #124, #19, #150, .T. ) ;
#48 = EDGE_LOOP ( 'NONE', ( #139, #164 ) ) ;
#49 = SECURITY_CLASSIFICATION_LEVEL ( 'unclassified' ) ;
#50 = ORIENTED_EDGE ( 'NONE', *, *, #138, .T. ) ;
#51 = EDGE_LOOP ( 'NONE', ( #3, #107 ) ) ;
#52 = CC_DESIGN_APPROVAL ( #99, ( #134 ) ) ;
#53 = AXIS2_PLACEMENT_3D ( 'NONE', #37, #94, #166 ) ;
#54 =( LENGTH_UNIT ( ) NAMED_UNIT ( * ) SI_UNIT ( .MILLI., .METRE. ) );
#55 = APPLICATION_PROTOCOL_DEFINITION ( 'international standard', 'config_control_design', 1994, #174 ) ;
#56 = CARTESIAN_POINT ( 'NONE',  ( 6.250000000000000000, 7.654042494670955634E-16, 24.28384947268374106 ) ) ;
#57 = DATE_TIME_ROLE ( 'classification_date' ) ;
#58 = CC_DESIGN_PERSON_AND_ORGANIZATION_ASSIGNMENT ( #133, #88, ( #134 ) ) ;
#59 = CLOSED_SHELL ( 'NONE', ( #175, #73, #90, #142 ) ) ;
#60 = CARTESIAN_POINT ( 'NONE',  ( 6.250000000000000000, -12.50000000000000000, 24.28384947268373750 ) ) ;
#61 =( BOUNDED_CURVE ( )  B_SPLINE_CURVE ( 3, ( #92, #149, #20, #77 ),
 .UNSPECIFIED., .F., .T. ) 
 B_SPLINE_CURVE_WITH_KNOTS ( ( 4, 4 ),
 ( 3.141592653589793116, 6.283185307179586232 ),
 .UNSPECIFIED. ) 
 CURVE ( )  GEOMETRIC_REPRESENTATION_ITEM ( )  RATIONAL_B_SPLINE_CURVE ( ( 1.000000000000000000, 0.3333333333333333703, 0.3333333333333333703, 1.000000000000000000 ) ) 
 REPRESENTATION_ITEM ( '' )  );
#62 = APPROVAL_PERSON_ORGANIZATION ( #31, #99, #6 ) ;
#63 = LOCAL_TIME ( 11, 51, 0.000000000000000000, #93 ) ;
#64 = APPROVAL ( #102, 'Î´Ö¸¶¨' ) ;
#65 = CARTESIAN_POINT ( 'NONE',  ( 6.250000000000000000, 12.50000000000000000, 25.69806303505684397 ) ) ;
#66 = FACE_OUTER_BOUND ( 'NONE', #22, .T. ) ;
#67 = CARTESIAN_POINT ( 'NONE',  ( 6.250000000000000000, 7.654042494670955634E-16, 24.28384947268374106 ) ) ;
#68 = DIRECTION ( 'NONE',  ( 0.7071067811865490160, 0.000000000000000000, 0.7071067811865460184 ) ) ;
#69 = FACE_OUTER_BOUND ( 'NONE', #48, .T. ) ;
#70 = DATE_AND_TIME ( #125, #168 ) ;
#71 = PRODUCT ( '347500', '347500', '', ( #114 ) ) ;
#72 = CALENDAR_DATE ( 2021, 7, 2 ) ;
#73 = ADVANCED_FACE ( 'NONE', ( #137 ), #126, .T. ) ;
#74 = LOCAL_TIME ( 11, 51, 0.000000000000000000, #8 ) ;
#75 =( BOUNDED_CURVE ( )  B_SPLINE_CURVE ( 3, ( #131, #113, #65, #24 ),
 .UNSPECIFIED., .F., .T. ) 
 B_SPLINE_CURVE_WITH_KNOTS ( ( 4, 4 ),
 ( 0.000000000000000000, 3.141592653589793116 ),
 .UNSPECIFIED. ) 
 CURVE ( )  GEOMETRIC_REPRESENTATION_ITEM ( )  RATIONAL_B_SPLINE_CURVE ( ( 1.000000000000000000, 0.3333333333333333703, 0.3333333333333333703, 1.000000000000000000 ) ) 
 REPRESENTATION_ITEM ( '' )  );
#76 = CARTESIAN_POINT ( 'NONE',  ( 6.250000000000000000, 7.654042494670955634E-16, 25.69806303505684042 ) ) ;
#77 = CARTESIAN_POINT ( 'NONE',  ( -6.250000000000000000, 0.000000000000000000, 13.19806303505689016 ) ) ;
#78 = AXIS2_PLACEMENT_3D ( 'NONE', #167, #145, #144 ) ;
#79 = ORIENTED_EDGE ( 'NONE', *, *, #118, .T. ) ;
#80 = ORIENTED_EDGE ( 'NONE', *, *, #15, .T. ) ;
#81 = CC_DESIGN_DATE_AND_TIME_ASSIGNMENT ( #70, #57, ( #9 ) ) ;
#82 = LOCAL_TIME ( 11, 51, 0.000000000000000000, #87 ) ;
#83 = DIRECTION ( 'NONE',  ( -0.000000000000000000, -0.000000000000000000, -1.000000000000000000 ) ) ;
#84 = CARTESIAN_POINT ( 'NONE',  ( 6.250000000000005329, 12.50000000000000000, 24.28384947268373750 ) ) ;
#85 = MANIFOLD_SOLID_BREP ( 'ÇÐ³ý-À­Éì1', #59 ) ;
#86 =( BOUNDED_CURVE ( )  B_SPLINE_CURVE ( 3, ( #97, #135, #60, #35 ),
 .UNSPECIFIED., .F., .F. ) 
 B_SPLINE_CURVE_WITH_KNOTS ( ( 4, 4 ),
 ( 0.000000000000000000, 3.141592653589793116 ),
 .UNSPECIFIED. ) 
 CURVE ( )  GEOMETRIC_REPRESENTATION_ITEM ( )  RATIONAL_B_SPLINE_CURVE ( ( 1.000000000000000000, 0.3333333333333333703, 0.3333333333333333703, 1.000000000000000000 ) ) 
 REPRESENTATION_ITEM ( '' )  );
#87 = COORDINATED_UNIVERSAL_TIME_OFFSET ( 8, 0, .AHEAD. ) ;
#88 = PERSON_AND_ORGANIZATION_ROLE ( 'creator' ) ;
#89 = DATE_AND_TIME ( #46, #63 ) ;
#90 = ADVANCED_FACE ( 'NONE', ( #69 ), #154, .F. ) ;
#91 = ORIENTED_EDGE ( 'NONE', *, *, #95, .T. ) ;
#92 = CARTESIAN_POINT ( 'NONE',  ( 6.250000000000000000, 7.654042494670955634E-16, 25.69806303505684042 ) ) ;
#93 = COORDINATED_UNIVERSAL_TIME_OFFSET ( 8, 0, .AHEAD. ) ;
#94 = DIRECTION ( 'NONE',  ( -0.000000000000000000, -0.000000000000000000, -1.000000000000000000 ) ) ;
#95 = EDGE_CURVE ( 'NONE', #124, #10, #75, .T. ) ;
#96 =( BOUNDED_CURVE ( )  B_SPLINE_CURVE ( 3, ( #56, #84, #130, #40 ),
 .UNSPECIFIED., .F., .T. ) 
 B_SPLINE_CURVE_WITH_KNOTS ( ( 4, 4 ),
 ( 3.141592653589793116, 6.283185307179586232 ),
 .UNSPECIFIED. ) 
 CURVE ( )  GEOMETRIC_REPRESENTATION_ITEM ( )  RATIONAL_B_SPLINE_CURVE ( ( 1.000000000000000000, 0.3333333333333333703, 0.3333333333333333703, 1.000000000000000000 ) ) 
 REPRESENTATION_ITEM ( '' )  );
#97 = CARTESIAN_POINT ( 'NONE',  ( -6.250000000000000000, 0.000000000000000000, 11.78384947268379435 ) ) ;
#98 =( NAMED_UNIT ( * ) SI_UNIT ( $, .STERADIAN. ) SOLID_ANGLE_UNIT ( ) );
#99 = APPROVAL ( #173, 'Î´Ö¸¶¨' ) ;
#100 = CARTESIAN_POINT ( 'NONE',  ( 0.000000000000000000, 0.000000000000000000, 61.00000000000001421 ) ) ;
#101 = CC_DESIGN_DATE_AND_TIME_ASSIGNMENT ( #171, #110, ( #155 ) ) ;
#102 = APPROVAL_STATUS ( 'not_yet_approved' ) ;
#103 = VECTOR ( 'NONE', #141, 1000.000000000000000 ) ;
#104 = AXIS2_PLACEMENT_3D ( 'NONE', #143, #12, #4 ) ;
#105 = ORGANIZATION ( 'Î´Ö¸¶¨', 'Î´Ö¸¶¨', '' ) ;
#106 = CC_DESIGN_PERSON_AND_ORGANIZATION_ASSIGNMENT ( #153, #116, ( #71 ) ) ;
#107 = ORIENTED_EDGE ( 'NONE', *, *, #15, .F. ) ;
#108 = APPLICATION_CONTEXT ( 'configuration controlled 3d designs of mechanical parts and assemblies' ) ;
#109 = ORIENTED_EDGE ( 'NONE', *, *, #118, .F. ) ;
#110 = DATE_TIME_ROLE ( 'creation_date' ) ;
#111 = CARTESIAN_POINT ( 'NONE',  ( -6.250000000000000000, 0.000000000000000000, 11.78384947268379435 ) ) ;
#112 = CC_DESIGN_APPROVAL ( #1, ( #155 ) ) ;
#113 = CARTESIAN_POINT ( 'NONE',  ( -6.250000000000002665, 12.50000000000000000, 13.19806303505688305 ) ) ;
#114 = MECHANICAL_CONTEXT ( 'NONE', #108, 'mechanical' ) ;
#115 = CC_DESIGN_PERSON_AND_ORGANIZATION_ASSIGNMENT ( #148, #29, ( #155 ) ) ;
#116 = PERSON_AND_ORGANIZATION_ROLE ( 'design_owner' ) ;
#117 = CYLINDRICAL_SURFACE ( 'NONE', #156, 6.250000000000000000 ) ;
#118 = EDGE_CURVE ( 'NONE', #10, #129, #13, .T. ) ;
#119 = CC_DESIGN_PERSON_AND_ORGANIZATION_ASSIGNMENT ( #161, #163, ( #9 ) ) ;
#120 = CALENDAR_DATE ( 2021, 7, 2 ) ;
#121 = APPROVAL_ROLE ( '' ) ;
#122 = DATE_AND_TIME ( #34, #74 ) ;
#123 = APPROVAL_PERSON_ORGANIZATION ( #42, #1, #158 ) ;
#124 = VERTEX_POINT ( 'NONE', #5 ) ;
#125 = CALENDAR_DATE ( 2021, 7, 2 ) ;
#126 = CYLINDRICAL_SURFACE ( 'NONE', #53, 6.250000000000000000 ) ;
#127 = PERSON ( 'Î´Ö¸¶¨', 'Î´Ö¸¶¨', 'Î´Ö¸¶¨', ('Î´Ö¸¶¨'), ('Î´Ö¸¶¨'), ('Î´Ö¸¶¨') ) ;
#128 = EDGE_LOOP ( 'NONE', ( #109, #80, #38, #32 ) ) ;
#129 = VERTEX_POINT ( 'NONE', #67 ) ;
#130 = CARTESIAN_POINT ( 'NONE',  ( -6.250000000000002665, 12.50000000000000000, 11.78384947268379079 ) ) ;
#131 = CARTESIAN_POINT ( 'NONE',  ( -6.250000000000000000, 0.000000000000000000, 13.19806303505689016 ) ) ;
#132 = DATE_AND_TIME ( #72, #82 ) ;
#133 = PERSON_AND_ORGANIZATION ( #127, #105 ) ;
#134 = PRODUCT_DEFINITION_FORMATION_WITH_SPECIFIED_SOURCE ( 'ÈÎºÎ', '', #71, .NOT_KNOWN. ) ;
#135 = CARTESIAN_POINT ( 'NONE',  ( -6.250000000000002665, -12.50000000000000000, 11.78384947268379079 ) ) ;
#136 = PERSON_AND_ORGANIZATION_ROLE ( 'design_supplier' ) ;
#137 = FACE_OUTER_BOUND ( 'NONE', #128, .T. ) ;
#138 = EDGE_CURVE ( 'NONE', #129, #19, #96, .T. ) ;
#139 = ORIENTED_EDGE ( 'NONE', *, *, #11, .F. ) ;
#140 =( NAMED_UNIT ( * ) PLANE_ANGLE_UNIT ( ) SI_UNIT ( $, .RADIAN. ) );
#141 = DIRECTION ( 'NONE',  ( -0.000000000000000000, -0.000000000000000000, -1.000000000000000000 ) ) ;
#142 = ADVANCED_FACE ( 'NONE', ( #23 ), #16, .F. ) ;
#143 = CARTESIAN_POINT ( 'NONE',  ( -40.08544724261557235, -30.50000000000000711, -20.63738420755854364 ) ) ;
#144 = DIRECTION ( 'NONE',  ( 1.000000000000000000, 0.000000000000000000, 0.000000000000000000 ) ) ;
#145 = DIRECTION ( 'NONE',  ( 0.000000000000000000, 0.000000000000000000, 1.000000000000000000 ) ) ;
#146 = SHAPE_DEFINITION_REPRESENTATION ( #45, #170 ) ;
#147 =( GEOMETRIC_REPRESENTATION_CONTEXT ( 3 ) GLOBAL_UNCERTAINTY_ASSIGNED_CONTEXT ( ( #172 ) ) GLOBAL_UNIT_ASSIGNED_CONTEXT ( ( #54, #140, #98 ) ) REPRESENTATION_CONTEXT ( 'NONE', 'WORKASPACE' ) );
#148 = PERSON_AND_ORGANIZATION ( #127, #105 ) ;
#149 = CARTESIAN_POINT ( 'NONE',  ( 6.250000000000005329, -12.50000000000000000, 25.69806303505684397 ) ) ;
#150 = LINE ( 'NONE', #33, #160 ) ;
#151 = PRODUCT_RELATED_PRODUCT_CATEGORY ( 'detail', '', ( #71 ) ) ;
#152 = CARTESIAN_POINT ( 'NONE',  ( 6.250000000000000000, 7.654042494670955634E-16, 61.00000000000001421 ) ) ;
#153 = PERSON_AND_ORGANIZATION ( #127, #105 ) ;
#154 = PLANE ( 'NONE',  #39 ) ;
#155 = PRODUCT_DEFINITION ( 'Î´Öª', '', #134, #169 ) ;
#156 = AXIS2_PLACEMENT_3D ( 'NONE', #100, #83, #26 ) ;
#157 = CC_DESIGN_APPROVAL ( #64, ( #9 ) ) ;
#158 = APPROVAL_ROLE ( '' ) ;
#159 = PERSON_AND_ORGANIZATION ( #127, #105 ) ;
#160 = VECTOR ( 'NONE', #165, 1000.000000000000000 ) ;
#161 = PERSON_AND_ORGANIZATION ( #127, #105 ) ;
#162 = APPROVAL_DATE_TIME ( #89, #64 ) ;
#163 = PERSON_AND_ORGANIZATION_ROLE ( 'classification_officer' ) ;
#164 = ORIENTED_EDGE ( 'NONE', *, *, #138, .F. ) ;
#165 = DIRECTION ( 'NONE',  ( -0.000000000000000000, -0.000000000000000000, -1.000000000000000000 ) ) ;
#166 = DIRECTION ( 'NONE',  ( -1.000000000000000000, 0.000000000000000000, 0.000000000000000000 ) ) ;
#167 = CARTESIAN_POINT ( 'NONE',  ( 0.000000000000000000, 0.000000000000000000, 0.000000000000000000 ) ) ;
#168 = LOCAL_TIME ( 11, 51, 0.000000000000000000, #30 ) ;
#169 = DESIGN_CONTEXT ( 'detailed design', #174, 'design' ) ;
#170 = ADVANCED_BREP_SHAPE_REPRESENTATION ( '347500', ( #85, #78 ), #147 ) ;
#171 = DATE_AND_TIME ( #120, #25 ) ;
#172 = UNCERTAINTY_MEASURE_WITH_UNIT (LENGTH_MEASURE( 1.000000000000000082E-05 ), #54, 'distance_accuracy_value', 'NONE');
#173 = APPROVAL_STATUS ( 'not_yet_approved' ) ;
#174 = APPLICATION_CONTEXT ( 'configuration controlled 3d designs of mechanical parts and assemblies' ) ;
#175 = ADVANCED_FACE ( 'NONE', ( #66 ), #117, .T. ) ;
ENDSEC;
END-ISO-10303-21;
