ISO-10303-21;
HEADER;
FILE_DESCRIPTION (( 'STEP AP214' ),
    '1' );
FILE_NAME ('351500.STEP',
    '2019-08-14T07:38:44',
    ( 'user' ),
    ( 'Î¢ÈíÖÐ¹ú' ),
    'SwSTEP 2.0',
    'SolidWorks 2016',
    '' );
FILE_SCHEMA (( 'AUTOMOTIVE_DESIGN' ));
ENDSEC;

DATA;
#1 = LINE ( 'NONE', #81, #83 ) ;
#2 = APPLICATION_PROTOCOL_DEFINITION ( 'draft international standard', 'automotive_design', 1998, #63 ) ;
#3 = AXIS2_PLACEMENT_3D ( 'NONE', #113, #43, #140 ) ;
#4 = ADVANCED_BREP_SHAPE_REPRESENTATION ( '351500', ( #56, #3 ), #64 ) ;
#5 = PRODUCT_DEFINITION_CONTEXT ( 'detailed design', #63, 'design' ) ;
#6 = CARTESIAN_POINT ( 'NONE',  ( 0.0000000000000000000, 6.349999999999999600, 0.0000000000000000000 ) ) ;
#7 = ORIENTED_EDGE ( 'NONE', *, *, #73, .F. ) ;
#8 = DIRECTION ( 'NONE',  ( -1.000000000000000000, -0.0000000000000000000, -0.0000000000000000000 ) ) ;
#9 = MECHANICAL_DESIGN_GEOMETRIC_PRESENTATION_REPRESENTATION (  '', ( #124 ), #121 ) ;
#10 = SURFACE_STYLE_USAGE ( .BOTH. , #120 ) ;
#11 = PRODUCT_DEFINITION ( 'Î´Öª', '', #17, #5 ) ;
#12 = PRODUCT_CONTEXT ( 'NONE', #61, 'mechanical' ) ;
#13 = CYLINDRICAL_SURFACE ( 'NONE', #59, 6.349999999999999600 ) ;
#14 = ORIENTED_EDGE ( 'NONE', *, *, #65, .T. ) ;
#15 = PRODUCT ( '351500', '351500', '', ( #12 ) ) ;
#16 = ORIENTED_EDGE ( 'NONE', *, *, #131, .F. ) ;
#17 = PRODUCT_DEFINITION_FORMATION_WITH_SPECIFIED_SOURCE ( 'ÈÎºÎ', '', #15, .NOT_KNOWN. ) ;
#18 = APPLICATION_PROTOCOL_DEFINITION ( 'draft international standard', 'automotive_design', 1998, #61 ) ;
#19 = SURFACE_STYLE_FILL_AREA ( #119 ) ;
#20 = CLOSED_SHELL ( 'NONE', ( #105, #62, #107, #106 ) ) ;
#21 = DIRECTION ( 'NONE',  ( 0.0000000000000000000, 0.0000000000000000000, 1.000000000000000000 ) ) ;
#22 = CARTESIAN_POINT ( 'NONE',  ( 2.889168779057453400, 6.350000000000000500, -6.349999999999999600 ) ) ;
#23 = CARTESIAN_POINT ( 'NONE',  ( 0.0000000000000000000, 6.349999999999999600, 6.349999999999999600 ) ) ;
#24 =( BOUNDED_CURVE ( )  B_SPLINE_CURVE ( 3, ( #79, #57, #68, #133 ),
 .UNSPECIFIED., .F., .T. ) 
 B_SPLINE_CURVE_WITH_KNOTS ( ( 4, 4 ),
 ( 3.141592653589793100, 6.283185307179586200 ),
 .UNSPECIFIED. ) 
 CURVE ( )  GEOMETRIC_REPRESENTATION_ITEM ( )  RATIONAL_B_SPLINE_CURVE ( ( 1.000000000000000000, 0.3333333333333333700, 0.3333333333333333700, 1.000000000000000000 ) ) 
 REPRESENTATION_ITEM ( '' )  );
#25 =( NAMED_UNIT ( * ) SI_UNIT ( $, .STERADIAN. ) SOLID_ANGLE_UNIT ( ) );
#26 = CYLINDRICAL_SURFACE ( 'NONE', #50, 6.349999999999999600 ) ;
#27 = EDGE_LOOP ( 'NONE', ( #103, #76, #130, #109 ) ) ;
#28 = COLOUR_RGB ( '',1.000000000000000000, 1.000000000000000000, 1.000000000000000000 ) ;
#29 =( NAMED_UNIT ( * ) SI_UNIT ( $, .STERADIAN. ) SOLID_ANGLE_UNIT ( ) );
#30 = DIRECTION ( 'NONE',  ( 0.008726535498367004500, 0.0000000000000000000, 0.9999619230641714200 ) ) ;
#31 = CARTESIAN_POINT ( 'NONE',  ( 0.0000000000000000000, 6.349999999999999600, 0.0000000000000000000 ) ) ;
#32 = VECTOR ( 'NONE', #116, 1000.000000000000000 ) ;
#33 = UNCERTAINTY_MEASURE_WITH_UNIT (LENGTH_MEASURE( 1.000000000000000100E-005 ), #34, 'distance_accuracy_value', 'NONE');
#34 =( LENGTH_UNIT ( ) NAMED_UNIT ( * ) SI_UNIT ( .MILLI., .METRE. ) );
#35 = ORIENTED_EDGE ( 'NONE', *, *, #78, .F. ) ;
#36 = SHAPE_DEFINITION_REPRESENTATION ( #53, #4 ) ;
#37 = PRESENTATION_LAYER_ASSIGNMENT (  '', '', ( #124 ) ) ;
#38 =( LENGTH_UNIT ( ) NAMED_UNIT ( * ) SI_UNIT ( .MILLI., .METRE. ) );
#39 = VERTEX_POINT ( 'NONE', #92 ) ;
#40 = PRESENTATION_STYLE_ASSIGNMENT (( #10 ) ) ;
#41 = DIRECTION ( 'NONE',  ( 1.000000000000000000, 0.0000000000000000000, 0.0000000000000000000 ) ) ;
#42 = FILL_AREA_STYLE ('',( #104 ) ) ;
#43 = DIRECTION ( 'NONE',  ( 0.0000000000000000000, 0.0000000000000000000, 1.000000000000000000 ) ) ;
#44 = ORIENTED_EDGE ( 'NONE', *, *, #98, .T. ) ;
#45 = UNCERTAINTY_MEASURE_WITH_UNIT (LENGTH_MEASURE( 1.000000000000000100E-005 ), #72, 'distance_accuracy_value', 'NONE');
#46 = VERTEX_POINT ( 'NONE', #84 ) ;
#47 = DIRECTION ( 'NONE',  ( 0.0000000000000000000, 0.0000000000000000000, 1.000000000000000000 ) ) ;
#48 = VERTEX_POINT ( 'NONE', #23 ) ;
#49 = SURFACE_SIDE_STYLE ('',( #19 ) ) ;
#50 = AXIS2_PLACEMENT_3D ( 'NONE', #115, #8, #100 ) ;
#51 = ORIENTED_EDGE ( 'NONE', *, *, #87, .T. ) ;
#52 = FACE_OUTER_BOUND ( 'NONE', #27, .T. ) ;
#53 = PRODUCT_DEFINITION_SHAPE ( 'NONE', 'NONE',  #11 ) ;
#54 = ORIENTED_EDGE ( 'NONE', *, *, #65, .F. ) ;
#55 = CIRCLE ( 'NONE', #126, 6.349999999999999600 ) ;
#56 = MANIFOLD_SOLID_BREP ( 'ÇÐ³ý-À­Éì2', #20 ) ;
#57 = CARTESIAN_POINT ( 'NONE',  ( 3.000000000000001800, 19.04999999999999700, 6.349999999999999600 ) ) ;
#58 = CARTESIAN_POINT ( 'NONE',  ( 0.0000000000000000000, 6.350000000000000500, -6.349999999999999600 ) ) ;
#59 = AXIS2_PLACEMENT_3D ( 'NONE', #80, #69, #47 ) ;
#60 =( NAMED_UNIT ( * ) SI_UNIT ( $, .STERADIAN. ) SOLID_ANGLE_UNIT ( ) );
#61 = APPLICATION_CONTEXT ( 'automotive_design' ) ;
#62 = ADVANCED_FACE ( 'NONE', ( #117 ), #118, .F. ) ;
#63 = APPLICATION_CONTEXT ( 'automotive_design' ) ;
#64 =( GEOMETRIC_REPRESENTATION_CONTEXT ( 3 ) GLOBAL_UNCERTAINTY_ASSIGNED_CONTEXT ( ( #123 ) ) GLOBAL_UNIT_ASSIGNED_CONTEXT ( ( #38, #97, #29 ) ) REPRESENTATION_CONTEXT ( 'NONE', 'WORKASPACE' ) );
#65 = EDGE_CURVE ( 'NONE', #39, #46, #108, .T. ) ;
#66 = COLOUR_RGB ( '',1.000000000000000000, 1.000000000000000000, 1.000000000000000000 ) ;
#67 = AXIS2_PLACEMENT_3D ( 'NONE', #134, #99, #30 ) ;
#68 = CARTESIAN_POINT ( 'NONE',  ( 2.889168779057453000, 19.04999999999999700, -6.349999999999999600 ) ) ;
#69 = DIRECTION ( 'NONE',  ( -1.000000000000000000, -0.0000000000000000000, -0.0000000000000000000 ) ) ;
#70 = DIRECTION ( 'NONE',  ( -1.000000000000000000, 0.0000000000000000000, 0.0000000000000000000 ) ) ;
#71 = CARTESIAN_POINT ( 'NONE',  ( 3.000000000000001800, -6.350000000000002300, 6.349999999999997000 ) ) ;
#72 =( LENGTH_UNIT ( ) NAMED_UNIT ( * ) SI_UNIT ( .MILLI., .METRE. ) );
#73 = EDGE_CURVE ( 'NONE', #39, #96, #94, .T. ) ;
#74 = FILL_AREA_STYLE_COLOUR ( '', #28 ) ;
#75 = EDGE_LOOP ( 'NONE', ( #16, #54 ) ) ;
#76 = ORIENTED_EDGE ( 'NONE', *, *, #73, .T. ) ;
#77 = PRESENTATION_STYLE_ASSIGNMENT (( #127 ) ) ;
#78 = EDGE_CURVE ( 'NONE', #96, #48, #55, .T. ) ;
#79 = CARTESIAN_POINT ( 'NONE',  ( 3.000000000000002700, 6.349999999999999600, 6.349999999999999600 ) ) ;
#80 = CARTESIAN_POINT ( 'NONE',  ( 12.50000000000000000, 6.349999999999999600, 0.0000000000000000000 ) ) ;
#81 = CARTESIAN_POINT ( 'NONE',  ( 12.50000000000000000, 6.349999999999999600, 6.349999999999999600 ) ) ;
#82 = CARTESIAN_POINT ( 'NONE',  ( 12.50000000000000000, 6.350000000000000500, -6.349999999999999600 ) ) ;
#83 = VECTOR ( 'NONE', #90, 1000.000000000000000 ) ;
#84 = CARTESIAN_POINT ( 'NONE',  ( 3.000000000000002700, 6.349999999999999600, 6.349999999999999600 ) ) ;
#85 = PRODUCT_RELATED_PRODUCT_CATEGORY ( 'part', '', ( #15 ) ) ;
#86 = SURFACE_STYLE_FILL_AREA ( #42 ) ;
#87 = EDGE_CURVE ( 'NONE', #46, #48, #1, .T. ) ;
#88 = DIRECTION ( 'NONE',  ( -1.000000000000000000, 0.0000000000000000000, 0.0000000000000000000 ) ) ;
#89 = ORIENTED_EDGE ( 'NONE', *, *, #78, .T. ) ;
#90 = DIRECTION ( 'NONE',  ( -1.000000000000000000, -0.0000000000000000000, -0.0000000000000000000 ) ) ;
#91 = CARTESIAN_POINT ( 'NONE',  ( 2.889168779057453000, -6.350000000000002300, -6.349999999999999600 ) ) ;
#92 = CARTESIAN_POINT ( 'NONE',  ( 2.889168779057453400, 6.350000000000000500, -6.349999999999999600 ) ) ;
#93 = AXIS2_PLACEMENT_3D ( 'NONE', #31, #88, #21 ) ;
#94 = LINE ( 'NONE', #82, #32 ) ;
#95 = STYLED_ITEM ( 'NONE', ( #77 ), #4 ) ;
#96 = VERTEX_POINT ( 'NONE', #58 ) ;
#97 =( NAMED_UNIT ( * ) PLANE_ANGLE_UNIT ( ) SI_UNIT ( $, .RADIAN. ) );
#98 = EDGE_CURVE ( 'NONE', #48, #96, #125, .T. ) ;
#99 = DIRECTION ( 'NONE',  ( -0.9999619230641714200, 0.0000000000000000000, 0.008726535498367004500 ) ) ;
#100 = DIRECTION ( 'NONE',  ( 0.0000000000000000000, 0.0000000000000000000, 1.000000000000000000 ) ) ;
#101 = DIRECTION ( 'NONE',  ( 0.0000000000000000000, 0.0000000000000000000, -1.000000000000000000 ) ) ;
#102 = PRESENTATION_LAYER_ASSIGNMENT (  '', '', ( #95 ) ) ;
#103 = ORIENTED_EDGE ( 'NONE', *, *, #131, .T. ) ;
#104 = FILL_AREA_STYLE_COLOUR ( '', #66 ) ;
#105 = ADVANCED_FACE ( 'NONE', ( #52 ), #26, .T. ) ;
#106 = ADVANCED_FACE ( 'NONE', ( #110 ), #13, .T. ) ;
#107 = ADVANCED_FACE ( 'NONE', ( #138 ), #114, .F. ) ;
#108 =( BOUNDED_CURVE ( )  B_SPLINE_CURVE ( 3, ( #22, #91, #71, #136 ),
 .UNSPECIFIED., .F., .F. ) 
 B_SPLINE_CURVE_WITH_KNOTS ( ( 4, 4 ),
 ( 0.0000000000000000000, 3.141592653589793100 ),
 .UNSPECIFIED. ) 
 CURVE ( )  GEOMETRIC_REPRESENTATION_ITEM ( )  RATIONAL_B_SPLINE_CURVE ( ( 1.000000000000000000, 0.3333333333333333700, 0.3333333333333333700, 1.000000000000000000 ) ) 
 REPRESENTATION_ITEM ( '' )  );
#109 = ORIENTED_EDGE ( 'NONE', *, *, #87, .F. ) ;
#110 = FACE_OUTER_BOUND ( 'NONE', #137, .T. ) ;
#111 = AXIS2_PLACEMENT_3D ( 'NONE', #129, #41, #101 ) ;
#112 = MECHANICAL_DESIGN_GEOMETRIC_PRESENTATION_REPRESENTATION (  '', ( #95 ), #122 ) ;
#113 = CARTESIAN_POINT ( 'NONE',  ( 0.0000000000000000000, 0.0000000000000000000, 0.0000000000000000000 ) ) ;
#114 = PLANE ( 'NONE',  #67 ) ;
#115 = CARTESIAN_POINT ( 'NONE',  ( 12.50000000000000000, 6.349999999999999600, 0.0000000000000000000 ) ) ;
#116 = DIRECTION ( 'NONE',  ( -1.000000000000000000, -0.0000000000000000000, -0.0000000000000000000 ) ) ;
#117 = FACE_OUTER_BOUND ( 'NONE', #132, .T. ) ;
#118 = PLANE ( 'NONE',  #111 ) ;
#119 = FILL_AREA_STYLE ('',( #74 ) ) ;
#120 = SURFACE_SIDE_STYLE ('',( #86 ) ) ;
#121 =( GEOMETRIC_REPRESENTATION_CONTEXT ( 3 ) GLOBAL_UNCERTAINTY_ASSIGNED_CONTEXT ( ( #45 ) ) GLOBAL_UNIT_ASSIGNED_CONTEXT ( ( #72, #139, #60 ) ) REPRESENTATION_CONTEXT ( 'NONE', 'WORKASPACE' ) );
#122 =( GEOMETRIC_REPRESENTATION_CONTEXT ( 3 ) GLOBAL_UNCERTAINTY_ASSIGNED_CONTEXT ( ( #33 ) ) GLOBAL_UNIT_ASSIGNED_CONTEXT ( ( #34, #128, #25 ) ) REPRESENTATION_CONTEXT ( 'NONE', 'WORKASPACE' ) );
#123 = UNCERTAINTY_MEASURE_WITH_UNIT (LENGTH_MEASURE( 1.000000000000000100E-005 ), #38, 'distance_accuracy_value', 'NONE');
#124 = STYLED_ITEM ( 'NONE', ( #40 ), #56 ) ;
#125 = CIRCLE ( 'NONE', #93, 6.349999999999999600 ) ;
#126 = AXIS2_PLACEMENT_3D ( 'NONE', #6, #70, #135 ) ;
#127 = SURFACE_STYLE_USAGE ( .BOTH. , #49 ) ;
#128 =( NAMED_UNIT ( * ) PLANE_ANGLE_UNIT ( ) SI_UNIT ( $, .RADIAN. ) );
#129 = CARTESIAN_POINT ( 'NONE',  ( 1.734723475976807100E-015, 12.69999999999999900, -6.349999999999999600 ) ) ;
#130 = ORIENTED_EDGE ( 'NONE', *, *, #98, .F. ) ;
#131 = EDGE_CURVE ( 'NONE', #46, #39, #24, .T. ) ;
#132 = EDGE_LOOP ( 'NONE', ( #44, #89 ) ) ;
#133 = CARTESIAN_POINT ( 'NONE',  ( 2.889168779057453400, 6.350000000000000500, -6.349999999999999600 ) ) ;
#134 = CARTESIAN_POINT ( 'NONE',  ( 3.000000000000001800, 12.69999999999999900, 6.349999999999999600 ) ) ;
#135 = DIRECTION ( 'NONE',  ( 0.0000000000000000000, 0.0000000000000000000, 1.000000000000000000 ) ) ;
#136 = CARTESIAN_POINT ( 'NONE',  ( 3.000000000000002700, 6.349999999999999600, 6.349999999999999600 ) ) ;
#137 = EDGE_LOOP ( 'NONE', ( #7, #14, #51, #35 ) ) ;
#138 = FACE_OUTER_BOUND ( 'NONE', #75, .T. ) ;
#139 =( NAMED_UNIT ( * ) PLANE_ANGLE_UNIT ( ) SI_UNIT ( $, .RADIAN. ) );
#140 = DIRECTION ( 'NONE',  ( 1.000000000000000000, 0.0000000000000000000, 0.0000000000000000000 ) ) ;
ENDSEC;
END-ISO-10303-21;
