ISO-10303-21;
HEADER;
FILE_DESCRIPTION (( 'STEP AP214' ),
    '1' );
FILE_NAME ('351501.STEP',
    '2019-08-14T07:49:25',
    ( 'user' ),
    ( 'Î¢ÈíÖÐ¹ú' ),
    'SwSTEP 2.0',
    'SolidWorks 2016',
    '' );
FILE_SCHEMA (( 'AUTOMOTIVE_DESIGN' ));
ENDSEC;

DATA;
#1 = EDGE_LOOP ( 'NONE', ( #76, #61 ) ) ;
#2 = ADVANCED_FACE ( 'NONE', ( #95 ), #8, .F. ) ;
#3 = PRODUCT_CONTEXT ( 'NONE', #66, 'mechanical' ) ;
#4 = ORIENTED_EDGE ( 'NONE', *, *, #69, .F. ) ;
#5 = FILL_AREA_STYLE_COLOUR ( '', #136 ) ;
#6 = CARTESIAN_POINT ( 'NONE',  ( 4.778337558114905900, 12.70000000000000100, -12.69999999999999900 ) ) ;
#7 = CARTESIAN_POINT ( 'NONE',  ( 0.0000000000000000000, 12.70000000000000100, -12.69999999999999900 ) ) ;
#8 = PLANE ( 'NONE',  #29 ) ;
#9 = ADVANCED_BREP_SHAPE_REPRESENTATION ( '351501', ( #131, #70 ), #74 ) ;
#10 = ORIENTED_EDGE ( 'NONE', *, *, #25, .F. ) ;
#11 = DIRECTION ( 'NONE',  ( -1.000000000000000000, 0.0000000000000000000, 0.0000000000000000000 ) ) ;
#12 = DIRECTION ( 'NONE',  ( -1.000000000000000000, -0.0000000000000000000, -0.0000000000000000000 ) ) ;
#13 = UNCERTAINTY_MEASURE_WITH_UNIT (LENGTH_MEASURE( 1.000000000000000100E-005 ), #56, 'distance_accuracy_value', 'NONE');
#14 = AXIS2_PLACEMENT_3D ( 'NONE', #68, #135, #117 ) ;
#15 = ADVANCED_FACE ( 'NONE', ( #98 ), #103, .T. ) ;
#16 = CARTESIAN_POINT ( 'NONE',  ( 1.734723475976807100E-015, 25.39999999999999900, -12.69999999999999900 ) ) ;
#17 = CLOSED_SHELL ( 'NONE', ( #15, #2, #39, #109 ) ) ;
#18 = VECTOR ( 'NONE', #12, 1000.000000000000000 ) ;
#19 = PRESENTATION_LAYER_ASSIGNMENT (  '', '', ( #82 ) ) ;
#20 = CARTESIAN_POINT ( 'NONE',  ( 0.0000000000000000000, 0.0000000000000000000, 0.0000000000000000000 ) ) ;
#21 = ORIENTED_EDGE ( 'NONE', *, *, #25, .T. ) ;
#22 =( NAMED_UNIT ( * ) PLANE_ANGLE_UNIT ( ) SI_UNIT ( $, .RADIAN. ) );
#23 = CARTESIAN_POINT ( 'NONE',  ( 12.50000000000000000, 12.69999999999999900, 12.69999999999999900 ) ) ;
#24 = DIRECTION ( 'NONE',  ( 0.0000000000000000000, 0.0000000000000000000, -1.000000000000000000 ) ) ;
#25 = EDGE_CURVE ( 'NONE', #101, #129, #64, .T. ) ;
#26 = STYLED_ITEM ( 'NONE', ( #99 ), #9 ) ;
#27 = AXIS2_PLACEMENT_3D ( 'NONE', #90, #11, #77 ) ;
#28 = VERTEX_POINT ( 'NONE', #7 ) ;
#29 = AXIS2_PLACEMENT_3D ( 'NONE', #16, #59, #24 ) ;
#30 =( NAMED_UNIT ( * ) SI_UNIT ( $, .STERADIAN. ) SOLID_ANGLE_UNIT ( ) );
#31 = VECTOR ( 'NONE', #79, 1000.000000000000000 ) ;
#32 = CARTESIAN_POINT ( 'NONE',  ( 5.000000000000001800, -12.70000000000000500, 12.69999999999999400 ) ) ;
#33 = PRESENTATION_LAYER_ASSIGNMENT (  '', '', ( #26 ) ) ;
#34 = CARTESIAN_POINT ( 'NONE',  ( 5.000000000000001800, 12.69999999999999900, 12.69999999999999900 ) ) ;
#35 = LINE ( 'NONE', #23, #18 ) ;
#36 =( GEOMETRIC_REPRESENTATION_CONTEXT ( 3 ) GLOBAL_UNCERTAINTY_ASSIGNED_CONTEXT ( ( #37 ) ) GLOBAL_UNIT_ASSIGNED_CONTEXT ( ( #123, #43, #114 ) ) REPRESENTATION_CONTEXT ( 'NONE', 'WORKASPACE' ) );
#37 = UNCERTAINTY_MEASURE_WITH_UNIT (LENGTH_MEASURE( 1.000000000000000100E-005 ), #123, 'distance_accuracy_value', 'NONE');
#38 = FACE_OUTER_BOUND ( 'NONE', #63, .T. ) ;
#39 = ADVANCED_FACE ( 'NONE', ( #38 ), #138, .F. ) ;
#40 = MECHANICAL_DESIGN_GEOMETRIC_PRESENTATION_REPRESENTATION (  '', ( #26 ), #50 ) ;
#41 = EDGE_LOOP ( 'NONE', ( #4, #94, #120, #121 ) ) ;
#42 =( LENGTH_UNIT ( ) NAMED_UNIT ( * ) SI_UNIT ( .MILLI., .METRE. ) );
#43 =( NAMED_UNIT ( * ) PLANE_ANGLE_UNIT ( ) SI_UNIT ( $, .RADIAN. ) );
#44 = CARTESIAN_POINT ( 'NONE',  ( 0.0000000000000000000, 12.69999999999999900, 12.69999999999999900 ) ) ;
#45 = DIRECTION ( 'NONE',  ( 0.0000000000000000000, 0.0000000000000000000, 1.000000000000000000 ) ) ;
#46 = CARTESIAN_POINT ( 'NONE',  ( 12.50000000000000000, 12.70000000000000100, -12.69999999999999900 ) ) ;
#47 = CARTESIAN_POINT ( 'NONE',  ( 5.000000000000001800, 38.09999999999999400, 12.69999999999999900 ) ) ;
#48 = CARTESIAN_POINT ( 'NONE',  ( 4.778337558114906800, -12.70000000000000500, -12.69999999999999900 ) ) ;
#49 = CIRCLE ( 'NONE', #27, 12.69999999999999900 ) ;
#50 =( GEOMETRIC_REPRESENTATION_CONTEXT ( 3 ) GLOBAL_UNCERTAINTY_ASSIGNED_CONTEXT ( ( #52 ) ) GLOBAL_UNIT_ASSIGNED_CONTEXT ( ( #42, #112, #30 ) ) REPRESENTATION_CONTEXT ( 'NONE', 'WORKASPACE' ) );
#51 = EDGE_LOOP ( 'NONE', ( #21, #107, #128, #110 ) ) ;
#52 = UNCERTAINTY_MEASURE_WITH_UNIT (LENGTH_MEASURE( 1.000000000000000100E-005 ), #42, 'distance_accuracy_value', 'NONE');
#53 = SURFACE_SIDE_STYLE ('',( #87 ) ) ;
#54 = SURFACE_STYLE_USAGE ( .BOTH. , #134 ) ;
#55 = PRESENTATION_STYLE_ASSIGNMENT (( #54 ) ) ;
#56 =( LENGTH_UNIT ( ) NAMED_UNIT ( * ) SI_UNIT ( .MILLI., .METRE. ) );
#57 = CARTESIAN_POINT ( 'NONE',  ( 0.0000000000000000000, 12.69999999999999900, 0.0000000000000000000 ) ) ;
#58 = DIRECTION ( 'NONE',  ( -0.9999619230641714200, 0.0000000000000000000, 0.008726535498366969800 ) ) ;
#59 = DIRECTION ( 'NONE',  ( 1.000000000000000000, 0.0000000000000000000, 0.0000000000000000000 ) ) ;
#60 = COLOUR_RGB ( '',1.000000000000000000, 1.000000000000000000, 1.000000000000000000 ) ;
#61 = ORIENTED_EDGE ( 'NONE', *, *, #93, .T. ) ;
#62 = AXIS2_PLACEMENT_3D ( 'NONE', #108, #58, #126 ) ;
#63 = EDGE_LOOP ( 'NONE', ( #10, #81 ) ) ;
#64 =( BOUNDED_CURVE ( )  B_SPLINE_CURVE ( 3, ( #34, #47, #127, #105 ),
 .UNSPECIFIED., .F., .T. ) 
 B_SPLINE_CURVE_WITH_KNOTS ( ( 4, 4 ),
 ( 3.141592653589793100, 6.283185307179586200 ),
 .UNSPECIFIED. ) 
 CURVE ( )  GEOMETRIC_REPRESENTATION_ITEM ( )  RATIONAL_B_SPLINE_CURVE ( ( 1.000000000000000000, 0.3333333333333333700, 0.3333333333333333700, 1.000000000000000000 ) ) 
 REPRESENTATION_ITEM ( '' )  );
#65 = APPLICATION_CONTEXT ( 'automotive_design' ) ;
#66 = APPLICATION_CONTEXT ( 'automotive_design' ) ;
#67 = FILL_AREA_STYLE ('',( #5 ) ) ;
#68 = CARTESIAN_POINT ( 'NONE',  ( 12.50000000000000000, 12.69999999999999900, 0.0000000000000000000 ) ) ;
#69 = EDGE_CURVE ( 'NONE', #129, #28, #111, .T. ) ;
#70 = AXIS2_PLACEMENT_3D ( 'NONE', #20, #86, #73 ) ;
#71 = PRODUCT_DEFINITION_SHAPE ( 'NONE', 'NONE',  #78 ) ;
#72 = EDGE_CURVE ( 'NONE', #101, #113, #35, .T. ) ;
#73 = DIRECTION ( 'NONE',  ( 1.000000000000000000, 0.0000000000000000000, 0.0000000000000000000 ) ) ;
#74 =( GEOMETRIC_REPRESENTATION_CONTEXT ( 3 ) GLOBAL_UNCERTAINTY_ASSIGNED_CONTEXT ( ( #13 ) ) GLOBAL_UNIT_ASSIGNED_CONTEXT ( ( #56, #22, #88 ) ) REPRESENTATION_CONTEXT ( 'NONE', 'WORKASPACE' ) );
#75 = APPLICATION_PROTOCOL_DEFINITION ( 'draft international standard', 'automotive_design', 1998, #66 ) ;
#76 = ORIENTED_EDGE ( 'NONE', *, *, #118, .T. ) ;
#77 = DIRECTION ( 'NONE',  ( 0.0000000000000000000, 0.0000000000000000000, 1.000000000000000000 ) ) ;
#78 = PRODUCT_DEFINITION ( 'Î´Öª', '', #85, #106 ) ;
#79 = DIRECTION ( 'NONE',  ( -1.000000000000000000, -0.0000000000000000000, -0.0000000000000000000 ) ) ;
#80 =( BOUNDED_CURVE ( )  B_SPLINE_CURVE ( 3, ( #6, #48, #32, #104 ),
 .UNSPECIFIED., .F., .T. ) 
 B_SPLINE_CURVE_WITH_KNOTS ( ( 4, 4 ),
 ( 0.0000000000000000000, 3.141592653589793100 ),
 .UNSPECIFIED. ) 
 CURVE ( )  GEOMETRIC_REPRESENTATION_ITEM ( )  RATIONAL_B_SPLINE_CURVE ( ( 1.000000000000000000, 0.3333333333333333700, 0.3333333333333333700, 1.000000000000000000 ) ) 
 REPRESENTATION_ITEM ( '' )  );
#81 = ORIENTED_EDGE ( 'NONE', *, *, #100, .F. ) ;
#82 = STYLED_ITEM ( 'NONE', ( #55 ), #131 ) ;
#83 = AXIS2_PLACEMENT_3D ( 'NONE', #57, #125, #45 ) ;
#84 = SURFACE_STYLE_FILL_AREA ( #67 ) ;
#85 = PRODUCT_DEFINITION_FORMATION_WITH_SPECIFIED_SOURCE ( 'ÈÎºÎ', '', #119, .NOT_KNOWN. ) ;
#86 = DIRECTION ( 'NONE',  ( 0.0000000000000000000, 0.0000000000000000000, 1.000000000000000000 ) ) ;
#87 = SURFACE_STYLE_FILL_AREA ( #133 ) ;
#88 =( NAMED_UNIT ( * ) SI_UNIT ( $, .STERADIAN. ) SOLID_ANGLE_UNIT ( ) );
#89 = CIRCLE ( 'NONE', #83, 12.69999999999999900 ) ;
#90 = CARTESIAN_POINT ( 'NONE',  ( 0.0000000000000000000, 12.69999999999999900, 0.0000000000000000000 ) ) ;
#91 = CYLINDRICAL_SURFACE ( 'NONE', #14, 12.69999999999999900 ) ;
#92 = CARTESIAN_POINT ( 'NONE',  ( 12.50000000000000000, 12.69999999999999900, 0.0000000000000000000 ) ) ;
#93 = EDGE_CURVE ( 'NONE', #28, #113, #89, .T. ) ;
#94 = ORIENTED_EDGE ( 'NONE', *, *, #100, .T. ) ;
#95 = FACE_OUTER_BOUND ( 'NONE', #1, .T. ) ;
#96 = AXIS2_PLACEMENT_3D ( 'NONE', #92, #139, #140 ) ;
#97 = PRODUCT_RELATED_PRODUCT_CATEGORY ( 'part', '', ( #119 ) ) ;
#98 = FACE_OUTER_BOUND ( 'NONE', #51, .T. ) ;
#99 = PRESENTATION_STYLE_ASSIGNMENT (( #122 ) ) ;
#100 = EDGE_CURVE ( 'NONE', #129, #101, #80, .T. ) ;
#101 = VERTEX_POINT ( 'NONE', #137 ) ;
#102 = MECHANICAL_DESIGN_GEOMETRIC_PRESENTATION_REPRESENTATION (  '', ( #82 ), #36 ) ;
#103 = CYLINDRICAL_SURFACE ( 'NONE', #96, 12.69999999999999900 ) ;
#104 = CARTESIAN_POINT ( 'NONE',  ( 5.000000000000001800, 12.69999999999999900, 12.69999999999999900 ) ) ;
#105 = CARTESIAN_POINT ( 'NONE',  ( 4.778337558114905900, 12.70000000000000100, -12.69999999999999900 ) ) ;
#106 = PRODUCT_DEFINITION_CONTEXT ( 'detailed design', #65, 'design' ) ;
#107 = ORIENTED_EDGE ( 'NONE', *, *, #69, .T. ) ;
#108 = CARTESIAN_POINT ( 'NONE',  ( 5.000000000000001800, 25.39999999999999900, 12.69999999999999900 ) ) ;
#109 = ADVANCED_FACE ( 'NONE', ( #116 ), #91, .T. ) ;
#110 = ORIENTED_EDGE ( 'NONE', *, *, #72, .F. ) ;
#111 = LINE ( 'NONE', #46, #31 ) ;
#112 =( NAMED_UNIT ( * ) PLANE_ANGLE_UNIT ( ) SI_UNIT ( $, .RADIAN. ) );
#113 = VERTEX_POINT ( 'NONE', #44 ) ;
#114 =( NAMED_UNIT ( * ) SI_UNIT ( $, .STERADIAN. ) SOLID_ANGLE_UNIT ( ) );
#115 = CARTESIAN_POINT ( 'NONE',  ( 4.778337558114905900, 12.70000000000000100, -12.69999999999999900 ) ) ;
#116 = FACE_OUTER_BOUND ( 'NONE', #41, .T. ) ;
#117 = DIRECTION ( 'NONE',  ( 0.0000000000000000000, 0.0000000000000000000, 1.000000000000000000 ) ) ;
#118 = EDGE_CURVE ( 'NONE', #113, #28, #49, .T. ) ;
#119 = PRODUCT ( '351501', '351501', '', ( #3 ) ) ;
#120 = ORIENTED_EDGE ( 'NONE', *, *, #72, .T. ) ;
#121 = ORIENTED_EDGE ( 'NONE', *, *, #93, .F. ) ;
#122 = SURFACE_STYLE_USAGE ( .BOTH. , #53 ) ;
#123 =( LENGTH_UNIT ( ) NAMED_UNIT ( * ) SI_UNIT ( .MILLI., .METRE. ) );
#124 = FILL_AREA_STYLE_COLOUR ( '', #60 ) ;
#125 = DIRECTION ( 'NONE',  ( -1.000000000000000000, 0.0000000000000000000, 0.0000000000000000000 ) ) ;
#126 = DIRECTION ( 'NONE',  ( 0.008726535498366969800, 0.0000000000000000000, 0.9999619230641714200 ) ) ;
#127 = CARTESIAN_POINT ( 'NONE',  ( 4.778337558114906800, 38.09999999999999400, -12.69999999999999900 ) ) ;
#128 = ORIENTED_EDGE ( 'NONE', *, *, #118, .F. ) ;
#129 = VERTEX_POINT ( 'NONE', #115 ) ;
#130 = SHAPE_DEFINITION_REPRESENTATION ( #71, #9 ) ;
#131 = MANIFOLD_SOLID_BREP ( 'ÇÐ³ý-À­Éì2', #17 ) ;
#132 = APPLICATION_PROTOCOL_DEFINITION ( 'draft international standard', 'automotive_design', 1998, #65 ) ;
#133 = FILL_AREA_STYLE ('',( #124 ) ) ;
#134 = SURFACE_SIDE_STYLE ('',( #84 ) ) ;
#135 = DIRECTION ( 'NONE',  ( -1.000000000000000000, -0.0000000000000000000, -0.0000000000000000000 ) ) ;
#136 = COLOUR_RGB ( '',1.000000000000000000, 1.000000000000000000, 1.000000000000000000 ) ;
#137 = CARTESIAN_POINT ( 'NONE',  ( 5.000000000000001800, 12.69999999999999900, 12.69999999999999900 ) ) ;
#138 = PLANE ( 'NONE',  #62 ) ;
#139 = DIRECTION ( 'NONE',  ( -1.000000000000000000, -0.0000000000000000000, -0.0000000000000000000 ) ) ;
#140 = DIRECTION ( 'NONE',  ( 0.0000000000000000000, 0.0000000000000000000, 1.000000000000000000 ) ) ;
ENDSEC;
END-ISO-10303-21;
