ISO-10303-21;
HEADER;
FILE_DESCRIPTION (( 'STEP AP214' ),
    '1' );
FILE_NAME ('352503.STEP',
    '2019-08-15T01:54:57',
    ( 'user' ),
    ( 'Î¢ÈíÖÐ¹ú' ),
    'SwSTEP 2.0',
    'SolidWorks 2016',
    '' );
FILE_SCHEMA (( 'AUTOMOTIVE_DESIGN' ));
ENDSEC;

DATA;
#1 = EDGE_CURVE ( 'NONE', #102, #84, #64, .T. ) ;
#2 = ADVANCED_FACE ( 'NONE', ( #278 ), #285, .T. ) ;
#3 = EDGE_CURVE ( 'NONE', #230, #56, #249, .T. ) ;
#4 = VERTEX_POINT ( 'NONE', #5 ) ;
#5 = CARTESIAN_POINT ( 'NONE',  ( 0.0000000000000000000, 0.0000000000000000000, 0.0000000000000000000 ) ) ;
#6 = EDGE_LOOP ( 'NONE', ( #86, #145, #113 ) ) ;
#7 =( GEOMETRIC_REPRESENTATION_CONTEXT ( 3 ) GLOBAL_UNCERTAINTY_ASSIGNED_CONTEXT ( ( #138 ) ) GLOBAL_UNIT_ASSIGNED_CONTEXT ( ( #179, #295, #153 ) ) REPRESENTATION_CONTEXT ( 'NONE', 'WORKASPACE' ) );
#8 = CARTESIAN_POINT ( 'NONE',  ( 0.0000000000000000000, 0.0000000000000000000, -10.00000000000000000 ) ) ;
#9 = EDGE_LOOP ( 'NONE', ( #236, #131, #32, #121 ) ) ;
#10 = DIRECTION ( 'NONE',  ( -0.0000000000000000000, 0.0000000000000000000, 1.000000000000000000 ) ) ;
#11 = CLOSED_SHELL ( 'NONE', ( #258, #2, #48, #188, #166 ) ) ;
#12 = CARTESIAN_POINT ( 'NONE',  ( -10.00000000000000000, 10.00000000000000000, -9.999999999999996400 ) ) ;
#13 = SURFACE_STYLE_FILL_AREA ( #200 ) ;
#14 = DIRECTION ( 'NONE',  ( 1.000000000000000000, 0.0000000000000000000, -3.469446951953614200E-016 ) ) ;
#15 = VECTOR ( 'NONE', #205, 1000.000000000000000 ) ;
#16 = VECTOR ( 'NONE', #174, 1000.000000000000000 ) ;
#17 = EDGE_CURVE ( 'NONE', #240, #77, #237, .T. ) ;
#18 = CARTESIAN_POINT ( 'NONE',  ( 0.0000000000000000000, 10.00000000000000000, 0.0000000000000000000 ) ) ;
#19 = DIRECTION ( 'NONE',  ( 1.000000000000000000, 0.0000000000000000000, 0.0000000000000000000 ) ) ;
#20 = LINE ( 'NONE', #261, #192 ) ;
#21 = AXIS2_PLACEMENT_3D ( 'NONE', #119, #244, #71 ) ;
#22 = PRODUCT_DEFINITION_CONTEXT ( 'detailed design', #184, 'design' ) ;
#23 = FACE_OUTER_BOUND ( 'NONE', #26, .T. ) ;
#24 = DIRECTION ( 'NONE',  ( -0.7071067811865476800, 0.0000000000000000000, -0.7071067811865474600 ) ) ;
#25 = VECTOR ( 'NONE', #207, 1000.000000000000000 ) ;
#26 = EDGE_LOOP ( 'NONE', ( #155, #175, #69, #78 ) ) ;
#27 = AXIS2_PLACEMENT_3D ( 'NONE', #275, #156, #14 ) ;
#28 = ORIENTED_EDGE ( 'NONE', *, *, #234, .F. ) ;
#29 = LINE ( 'NONE', #12, #269 ) ;
#30 = DIRECTION ( 'NONE',  ( 0.0000000000000000000, 1.000000000000000000, 0.0000000000000000000 ) ) ;
#31 = VECTOR ( 'NONE', #157, 1000.000000000000000 ) ;
#32 = ORIENTED_EDGE ( 'NONE', *, *, #245, .F. ) ;
#33 = DIRECTION ( 'NONE',  ( 0.0000000000000000000, -0.0000000000000000000, 1.000000000000000000 ) ) ;
#34 = EDGE_CURVE ( 'NONE', #4, #77, #20, .T. ) ;
#35 = CARTESIAN_POINT ( 'NONE',  ( -10.00000000000000000, 0.0000000000000000000, -9.999999999999996400 ) ) ;
#36 = CARTESIAN_POINT ( 'NONE',  ( -10.00000000000000000, 10.00000000000000000, 0.0000000000000000000 ) ) ;
#37 = EDGE_LOOP ( 'NONE', ( #273, #106, #158, #224 ) ) ;
#38 =( NAMED_UNIT ( * ) SI_UNIT ( $, .STERADIAN. ) SOLID_ANGLE_UNIT ( ) );
#39 = STYLED_ITEM ( 'NONE', ( #49 ), #201 ) ;
#40 = VECTOR ( 'NONE', #65, 1000.000000000000000 ) ;
#41 = ORIENTED_EDGE ( 'NONE', *, *, #286, .T. ) ;
#42 = PLANE ( 'NONE',  #297 ) ;
#43 = APPLICATION_PROTOCOL_DEFINITION ( 'draft international standard', 'automotive_design', 1998, #184 ) ;
#44 = DIRECTION ( 'NONE',  ( -0.0000000000000000000, -1.000000000000000000, -0.0000000000000000000 ) ) ;
#45 = CARTESIAN_POINT ( 'NONE',  ( 0.0000000000000000000, 10.00000000000000000, 0.0000000000000000000 ) ) ;
#46 = EDGE_CURVE ( 'NONE', #77, #84, #134, .T. ) ;
#47 = AXIS2_PLACEMENT_3D ( 'NONE', #167, #189, #97 ) ;
#48 = ADVANCED_FACE ( 'NONE', ( #247 ), #198, .T. ) ;
#49 = PRESENTATION_STYLE_ASSIGNMENT (( #57 ) ) ;
#50 = CARTESIAN_POINT ( 'NONE',  ( 0.0000000000000000000, 0.0000000000000000000, -10.00000000000000000 ) ) ;
#51 = AXIS2_PLACEMENT_3D ( 'NONE', #103, #30, #195 ) ;
#52 = ORIENTED_EDGE ( 'NONE', *, *, #61, .T. ) ;
#53 = STYLED_ITEM ( 'NONE', ( #298 ), #89 ) ;
#54 = DIRECTION ( 'NONE',  ( -1.000000000000000000, 0.0000000000000000000, 0.0000000000000000000 ) ) ;
#55 = SURFACE_STYLE_FILL_AREA ( #228 ) ;
#56 = VERTEX_POINT ( 'NONE', #191 ) ;
#57 = SURFACE_STYLE_USAGE ( .BOTH. , #79 ) ;
#58 =( NAMED_UNIT ( * ) PLANE_ANGLE_UNIT ( ) SI_UNIT ( $, .RADIAN. ) );
#59 =( LENGTH_UNIT ( ) NAMED_UNIT ( * ) SI_UNIT ( .MILLI., .METRE. ) );
#60 = CARTESIAN_POINT ( 'NONE',  ( 0.0000000000000000000, 0.0000000000000000000, 0.0000000000000000000 ) ) ;
#61 = EDGE_CURVE ( 'NONE', #246, #98, #76, .T. ) ;
#62 = EDGE_LOOP ( 'NONE', ( #28, #150, #264, #52 ) ) ;
#63 = PRESENTATION_LAYER_ASSIGNMENT (  '', '', ( #39 ) ) ;
#64 = LINE ( 'NONE', #259, #136 ) ;
#65 = DIRECTION ( 'NONE',  ( 0.0000000000000000000, 0.0000000000000000000, -1.000000000000000000 ) ) ;
#66 = CARTESIAN_POINT ( 'NONE',  ( -10.00000000000000000, 10.00000000000000000, -9.999999999999996400 ) ) ;
#67 = PRESENTATION_LAYER_ASSIGNMENT (  '', '', ( #53 ) ) ;
#68 = ADVANCED_FACE ( 'NONE', ( #194 ), #226, .F. ) ;
#69 = ORIENTED_EDGE ( 'NONE', *, *, #286, .F. ) ;
#70 = DIRECTION ( 'NONE',  ( 0.0000000000000000000, 0.0000000000000000000, -1.000000000000000000 ) ) ;
#71 = DIRECTION ( 'NONE',  ( 0.0000000000000000000, -0.0000000000000000000, 1.000000000000000000 ) ) ;
#72 = CARTESIAN_POINT ( 'NONE',  ( -10.00000000000000000, 10.00000000000000000, -9.999999999999996400 ) ) ;
#73 = ORIENTED_EDGE ( 'NONE', *, *, #245, .T. ) ;
#74 = CARTESIAN_POINT ( 'NONE',  ( 0.0000000000000000000, 10.00000000000000000, 0.0000000000000000000 ) ) ;
#75 = AXIS2_PLACEMENT_3D ( 'NONE', #36, #10, #148 ) ;
#76 = LINE ( 'NONE', #289, #16 ) ;
#77 = VERTEX_POINT ( 'NONE', #8 ) ;
#78 = ORIENTED_EDGE ( 'NONE', *, *, #1, .T. ) ;
#79 = SURFACE_SIDE_STYLE ('',( #112 ) ) ;
#80 = MECHANICAL_DESIGN_GEOMETRIC_PRESENTATION_REPRESENTATION (  '', ( #39 ), #100 ) ;
#81 = VECTOR ( 'NONE', #44, 1000.000000000000000 ) ;
#82 = SURFACE_SIDE_STYLE ('',( #55 ) ) ;
#83 = FACE_OUTER_BOUND ( 'NONE', #149, .T. ) ;
#84 = VERTEX_POINT ( 'NONE', #35 ) ;
#85 = MECHANICAL_DESIGN_GEOMETRIC_PRESENTATION_REPRESENTATION (  '', ( #53 ), #105 ) ;
#86 = ORIENTED_EDGE ( 'NONE', *, *, #256, .F. ) ;
#87 = UNCERTAINTY_MEASURE_WITH_UNIT (LENGTH_MEASURE( 1.000000000000000100E-005 ), #59, 'distance_accuracy_value', 'NONE');
#88 = DIRECTION ( 'NONE',  ( -1.000000000000000000, -0.0000000000000000000, -0.0000000000000000000 ) ) ;
#89 = ADVANCED_BREP_SHAPE_REPRESENTATION ( '352503', ( #241, #201, #147 ), #7 ) ;
#90 = LINE ( 'NONE', #242, #262 ) ;
#91 = CARTESIAN_POINT ( 'NONE',  ( 0.0000000000000000000, 10.00000000000000000, 0.0000000000000000000 ) ) ;
#92 = CARTESIAN_POINT ( 'NONE',  ( -10.00000000000000000, 10.00000000000000000, -9.999999999999996400 ) ) ;
#93 = LINE ( 'NONE', #250, #271 ) ;
#94 = ORIENTED_EDGE ( 'NONE', *, *, #234, .T. ) ;
#95 = ADVANCED_FACE ( 'NONE', ( #186 ), #287, .F. ) ;
#96 = ORIENTED_EDGE ( 'NONE', *, *, #61, .F. ) ;
#97 = DIRECTION ( 'NONE',  ( 0.0000000000000000000, 0.0000000000000000000, 1.000000000000000000 ) ) ;
#98 = VERTEX_POINT ( 'NONE', #173 ) ;
#99 = CARTESIAN_POINT ( 'NONE',  ( -10.00000000000000000, 10.00000000000000000, -9.999999999999996400 ) ) ;
#100 =( GEOMETRIC_REPRESENTATION_CONTEXT ( 3 ) GLOBAL_UNCERTAINTY_ASSIGNED_CONTEXT ( ( #139 ) ) GLOBAL_UNIT_ASSIGNED_CONTEXT ( ( #294, #126, #38 ) ) REPRESENTATION_CONTEXT ( 'NONE', 'WORKASPACE' ) );
#101 = LINE ( 'NONE', #91, #40 ) ;
#102 = VERTEX_POINT ( 'NONE', #72 ) ;
#103 = CARTESIAN_POINT ( 'NONE',  ( 0.0000000000000000000, 10.00000000000000000, 0.0000000000000000000 ) ) ;
#104 = PLANE ( 'NONE',  #290 ) ;
#105 =( GEOMETRIC_REPRESENTATION_CONTEXT ( 3 ) GLOBAL_UNCERTAINTY_ASSIGNED_CONTEXT ( ( #87 ) ) GLOBAL_UNIT_ASSIGNED_CONTEXT ( ( #59, #58, #227 ) ) REPRESENTATION_CONTEXT ( 'NONE', 'WORKASPACE' ) );
#106 = ORIENTED_EDGE ( 'NONE', *, *, #3, .F. ) ;
#107 = APPLICATION_PROTOCOL_DEFINITION ( 'draft international standard', 'automotive_design', 1998, #270 ) ;
#108 = CARTESIAN_POINT ( 'NONE',  ( -10.00000000000000000, 10.00000000000000000, -9.999999999999996400 ) ) ;
#109 = DIRECTION ( 'NONE',  ( -0.7071067811865476800, 0.0000000000000000000, -0.7071067811865474600 ) ) ;
#110 = AXIS2_PLACEMENT_3D ( 'NONE', #74, #54, #197 ) ;
#111 = CARTESIAN_POINT ( 'NONE',  ( 0.0000000000000000000, 10.00000000000000000, -10.00000000000000000 ) ) ;
#112 = SURFACE_STYLE_FILL_AREA ( #160 ) ;
#113 = ORIENTED_EDGE ( 'NONE', *, *, #34, .F. ) ;
#114 =( NAMED_UNIT ( * ) SI_UNIT ( $, .STERADIAN. ) SOLID_ANGLE_UNIT ( ) );
#115 = DIRECTION ( 'NONE',  ( -0.0000000000000000000, -0.0000000000000000000, -1.000000000000000000 ) ) ;
#116 = COLOUR_RGB ( '',1.000000000000000000, 1.000000000000000000, 1.000000000000000000 ) ;
#117 = ORIENTED_EDGE ( 'NONE', *, *, #276, .T. ) ;
#118 = DIRECTION ( 'NONE',  ( -0.0000000000000000000, -1.000000000000000000, -0.0000000000000000000 ) ) ;
#119 = CARTESIAN_POINT ( 'NONE',  ( 0.0000000000000000000, 0.0000000000000000000, 0.0000000000000000000 ) ) ;
#120 = DIRECTION ( 'NONE',  ( -0.0000000000000000000, 1.000000000000000000, 0.0000000000000000000 ) ) ;
#121 = ORIENTED_EDGE ( 'NONE', *, *, #232, .T. ) ;
#122 = CARTESIAN_POINT ( 'NONE',  ( 0.0000000000000000000, 0.0000000000000000000, 0.0000000000000000000 ) ) ;
#123 = ORIENTED_EDGE ( 'NONE', *, *, #257, .F. ) ;
#124 = FILL_AREA_STYLE_COLOUR ( '', #214 ) ;
#125 = STYLED_ITEM ( 'NONE', ( #254 ), #241 ) ;
#126 =( NAMED_UNIT ( * ) PLANE_ANGLE_UNIT ( ) SI_UNIT ( $, .RADIAN. ) );
#127 = CARTESIAN_POINT ( 'NONE',  ( 0.0000000000000000000, 0.0000000000000000000, 0.0000000000000000000 ) ) ;
#128 =( LENGTH_UNIT ( ) NAMED_UNIT ( * ) SI_UNIT ( .MILLI., .METRE. ) );
#129 = CARTESIAN_POINT ( 'NONE',  ( 0.0000000000000000000, 10.00000000000000000, 0.0000000000000000000 ) ) ;
#130 = LINE ( 'NONE', #108, #143 ) ;
#131 = ORIENTED_EDGE ( 'NONE', *, *, #17, .F. ) ;
#132 = FACE_OUTER_BOUND ( 'NONE', #165, .T. ) ;
#133 = ADVANCED_FACE ( 'NONE', ( #212 ), #104, .T. ) ;
#134 = LINE ( 'NONE', #50, #209 ) ;
#135 = DIRECTION ( 'NONE',  ( -0.0000000000000000000, -1.000000000000000000, -0.0000000000000000000 ) ) ;
#136 = VECTOR ( 'NONE', #135, 1000.000000000000000 ) ;
#137 = ORIENTED_EDGE ( 'NONE', *, *, #274, .F. ) ;
#138 = UNCERTAINTY_MEASURE_WITH_UNIT (LENGTH_MEASURE( 1.000000000000000100E-005 ), #179, 'distance_accuracy_value', 'NONE');
#139 = UNCERTAINTY_MEASURE_WITH_UNIT (LENGTH_MEASURE( 1.000000000000000100E-005 ), #294, 'distance_accuracy_value', 'NONE');
#140 = CARTESIAN_POINT ( 'NONE',  ( 0.0000000000000000000, 10.00000000000000000, -10.00000000000000000 ) ) ;
#141 = AXIS2_PLACEMENT_3D ( 'NONE', #66, #164, #24 ) ;
#142 = LINE ( 'NONE', #129, #81 ) ;
#143 = VECTOR ( 'NONE', #231, 1000.000000000000000 ) ;
#144 = PLANE ( 'NONE',  #51 ) ;
#145 = ORIENTED_EDGE ( 'NONE', *, *, #46, .F. ) ;
#146 = CARTESIAN_POINT ( 'NONE',  ( 0.0000000000000000000, 10.00000000000000000, 0.0000000000000000000 ) ) ;
#147 = AXIS2_PLACEMENT_3D ( 'NONE', #183, #299, #19 ) ;
#148 = DIRECTION ( 'NONE',  ( 1.000000000000000000, 0.0000000000000000000, 0.0000000000000000000 ) ) ;
#149 = EDGE_LOOP ( 'NONE', ( #268, #208, #185, #277 ) ) ;
#150 = ORIENTED_EDGE ( 'NONE', *, *, #243, .F. ) ;
#151 = VECTOR ( 'NONE', #282, 1000.000000000000000 ) ;
#152 = CARTESIAN_POINT ( 'NONE',  ( 0.0000000000000000000, 10.00000000000000000, -10.00000000000000000 ) ) ;
#153 =( NAMED_UNIT ( * ) SI_UNIT ( $, .STERADIAN. ) SOLID_ANGLE_UNIT ( ) );
#154 = VECTOR ( 'NONE', #187, 1000.000000000000000 ) ;
#155 = ORIENTED_EDGE ( 'NONE', *, *, #256, .T. ) ;
#156 = DIRECTION ( 'NONE',  ( 3.469446951953614200E-016, -0.0000000000000000000, 1.000000000000000000 ) ) ;
#157 = DIRECTION ( 'NONE',  ( -1.000000000000000000, -0.0000000000000000000, -0.0000000000000000000 ) ) ;
#158 = ORIENTED_EDGE ( 'NONE', *, *, #274, .T. ) ;
#159 = PRODUCT_CONTEXT ( 'NONE', #270, 'mechanical' ) ;
#160 = FILL_AREA_STYLE ('',( #171 ) ) ;
#161 = PRESENTATION_LAYER_ASSIGNMENT (  '', '', ( #125 ) ) ;
#162 = SURFACE_SIDE_STYLE ('',( #13 ) ) ;
#163 = LINE ( 'NONE', #255, #154 ) ;
#164 = DIRECTION ( 'NONE',  ( 0.7071067811865474600, 0.0000000000000000000, -0.7071067811865476800 ) ) ;
#165 = EDGE_LOOP ( 'NONE', ( #137, #248, #123 ) ) ;
#166 = ADVANCED_FACE ( 'NONE', ( #210 ), #225, .F. ) ;
#167 = CARTESIAN_POINT ( 'NONE',  ( -10.00000000000000000, 10.00000000000000000, -9.999999999999996400 ) ) ;
#168 = PRODUCT_DEFINITION ( 'Î´Öª', '', #190, #22 ) ;
#169 = DIRECTION ( 'NONE',  ( -1.000000000000000000, 0.0000000000000000000, 3.469446951953614200E-016 ) ) ;
#170 = VERTEX_POINT ( 'NONE', #172 ) ;
#171 = FILL_AREA_STYLE_COLOUR ( '', #176 ) ;
#172 = CARTESIAN_POINT ( 'NONE',  ( 0.0000000000000000000, 10.00000000000000000, 0.0000000000000000000 ) ) ;
#173 = CARTESIAN_POINT ( 'NONE',  ( -10.00000000000000000, 0.0000000000000000000, 0.0000000000000000000 ) ) ;
#174 = DIRECTION ( 'NONE',  ( 0.0000000000000000000, -1.000000000000000000, 0.0000000000000000000 ) ) ;
#175 = ORIENTED_EDGE ( 'NONE', *, *, #232, .F. ) ;
#176 = COLOUR_RGB ( '',1.000000000000000000, 1.000000000000000000, 1.000000000000000000 ) ;
#177 = DIRECTION ( 'NONE',  ( 0.7071067811865476800, 0.0000000000000000000, 0.7071067811865474600 ) ) ;
#178 = MECHANICAL_DESIGN_GEOMETRIC_PRESENTATION_REPRESENTATION (  '', ( #125 ), #251 ) ;
#179 =( LENGTH_UNIT ( ) NAMED_UNIT ( * ) SI_UNIT ( .MILLI., .METRE. ) );
#180 = PLANE ( 'NONE',  #27 ) ;
#181 = CARTESIAN_POINT ( 'NONE',  ( -10.00000000000000000, 10.00000000000000000, 0.0000000000000000000 ) ) ;
#182 = ORIENTED_EDGE ( 'NONE', *, *, #3, .T. ) ;
#183 = CARTESIAN_POINT ( 'NONE',  ( 0.0000000000000000000, 0.0000000000000000000, 0.0000000000000000000 ) ) ;
#184 = APPLICATION_CONTEXT ( 'automotive_design' ) ;
#185 = ORIENTED_EDGE ( 'NONE', *, *, #216, .F. ) ;
#186 = FACE_OUTER_BOUND ( 'NONE', #6, .T. ) ;
#187 = DIRECTION ( 'NONE',  ( 0.7071067811865476800, 0.0000000000000000000, 0.7071067811865474600 ) ) ;
#188 = ADVANCED_FACE ( 'NONE', ( #132 ), #144, .T. ) ;
#189 = DIRECTION ( 'NONE',  ( -1.000000000000000000, 0.0000000000000000000, 0.0000000000000000000 ) ) ;
#190 = PRODUCT_DEFINITION_FORMATION_WITH_SPECIFIED_SOURCE ( 'ÈÎºÎ', '', #252, .NOT_KNOWN. ) ;
#191 = CARTESIAN_POINT ( 'NONE',  ( -10.00000000000000000, -0.0000000000000000000, -9.999999999999996400 ) ) ;
#192 = VECTOR ( 'NONE', #70, 1000.000000000000000 ) ;
#193 = PRODUCT_DEFINITION_SHAPE ( 'NONE', 'NONE',  #168 ) ;
#194 = FACE_OUTER_BOUND ( 'NONE', #9, .T. ) ;
#195 = DIRECTION ( 'NONE',  ( 0.0000000000000000000, -0.0000000000000000000, 1.000000000000000000 ) ) ;
#196 = DIRECTION ( 'NONE',  ( -0.0000000000000000000, 1.000000000000000000, 0.0000000000000000000 ) ) ;
#197 = DIRECTION ( 'NONE',  ( 0.0000000000000000000, 0.0000000000000000000, 1.000000000000000000 ) ) ;
#198 = PLANE ( 'NONE',  #75 ) ;
#199 = VERTEX_POINT ( 'NONE', #223 ) ;
#200 = FILL_AREA_STYLE ('',( #124 ) ) ;
#201 = MANIFOLD_SOLID_BREP ( 'Í¹Ì¨-À­Éì2', #11 ) ;
#202 = LINE ( 'NONE', #45, #229 ) ;
#203 = SURFACE_STYLE_USAGE ( .BOTH. , #82 ) ;
#204 = VECTOR ( 'NONE', #220, 1000.000000000000000 ) ;
#205 = DIRECTION ( 'NONE',  ( 0.7071067811865476800, 0.0000000000000000000, 0.7071067811865474600 ) ) ;
#206 = LINE ( 'NONE', #60, #15 ) ;
#207 = DIRECTION ( 'NONE',  ( -0.0000000000000000000, -0.0000000000000000000, -1.000000000000000000 ) ) ;
#208 = ORIENTED_EDGE ( 'NONE', *, *, #1, .F. ) ;
#209 = VECTOR ( 'NONE', #169, 1000.000000000000000 ) ;
#210 = FACE_OUTER_BOUND ( 'NONE', #219, .T. ) ;
#211 = PRODUCT_RELATED_PRODUCT_CATEGORY ( 'part', '', ( #252 ) ) ;
#212 = FACE_OUTER_BOUND ( 'NONE', #217, .T. ) ;
#213 = DIRECTION ( 'NONE',  ( 0.0000000000000000000, -1.000000000000000000, 0.0000000000000000000 ) ) ;
#214 = COLOUR_RGB ( '',1.000000000000000000, 1.000000000000000000, 1.000000000000000000 ) ;
#215 = FACE_OUTER_BOUND ( 'NONE', #37, .T. ) ;
#216 = EDGE_CURVE ( 'NONE', #240, #102, #221, .T. ) ;
#217 = EDGE_LOOP ( 'NONE', ( #41, #73, #253 ) ) ;
#218 = EDGE_CURVE ( 'NONE', #246, #230, #29, .T. ) ;
#219 = EDGE_LOOP ( 'NONE', ( #266, #94, #117 ) ) ;
#220 = DIRECTION ( 'NONE',  ( 0.0000000000000000000, -1.000000000000000000, 0.0000000000000000000 ) ) ;
#221 = LINE ( 'NONE', #152, #151 ) ;
#222 = LINE ( 'NONE', #181, #31 ) ;
#223 = CARTESIAN_POINT ( 'NONE',  ( 0.0000000000000000000, 10.00000000000000000, 0.0000000000000000000 ) ) ;
#224 = ORIENTED_EDGE ( 'NONE', *, *, #243, .T. ) ;
#225 = PLANE ( 'NONE',  #21 ) ;
#226 = PLANE ( 'NONE',  #110 ) ;
#227 =( NAMED_UNIT ( * ) SI_UNIT ( $, .STERADIAN. ) SOLID_ANGLE_UNIT ( ) );
#228 = FILL_AREA_STYLE ('',( #272 ) ) ;
#229 = VECTOR ( 'NONE', #213, 1000.000000000000000 ) ;
#230 = VERTEX_POINT ( 'NONE', #92 ) ;
#231 = DIRECTION ( 'NONE',  ( 0.7071067811865476800, 0.0000000000000000000, 0.7071067811865474600 ) ) ;
#232 = EDGE_CURVE ( 'NONE', #199, #4, #142, .T. ) ;
#233 = CARTESIAN_POINT ( 'NONE',  ( -10.00000000000000000, -0.0000000000000000000, -9.999999999999996400 ) ) ;
#234 = EDGE_CURVE ( 'NONE', #292, #98, #90, .T. ) ;
#235 = UNCERTAINTY_MEASURE_WITH_UNIT (LENGTH_MEASURE( 1.000000000000000100E-005 ), #128, 'distance_accuracy_value', 'NONE');
#236 = ORIENTED_EDGE ( 'NONE', *, *, #34, .T. ) ;
#237 = LINE ( 'NONE', #140, #293 ) ;
#238 = ADVANCED_FACE ( 'NONE', ( #23 ), #291, .F. ) ;
#239 = ORIENTED_EDGE ( 'NONE', *, *, #276, .F. ) ;
#240 = VERTEX_POINT ( 'NONE', #111 ) ;
#241 = MANIFOLD_SOLID_BREP ( 'Í¹Ì¨-À­Éì1', #267 ) ;
#242 = CARTESIAN_POINT ( 'NONE',  ( -10.00000000000000000, 0.0000000000000000000, 0.0000000000000000000 ) ) ;
#243 = EDGE_CURVE ( 'NONE', #170, #292, #202, .T. ) ;
#244 = DIRECTION ( 'NONE',  ( 0.0000000000000000000, 1.000000000000000000, 0.0000000000000000000 ) ) ;
#245 = EDGE_CURVE ( 'NONE', #199, #240, #101, .T. ) ;
#246 = VERTEX_POINT ( 'NONE', #300 ) ;
#247 = FACE_OUTER_BOUND ( 'NONE', #62, .T. ) ;
#248 = ORIENTED_EDGE ( 'NONE', *, *, #218, .F. ) ;
#249 = LINE ( 'NONE', #99, #204 ) ;
#250 = CARTESIAN_POINT ( 'NONE',  ( 0.0000000000000000000, 10.00000000000000000, 0.0000000000000000000 ) ) ;
#251 =( GEOMETRIC_REPRESENTATION_CONTEXT ( 3 ) GLOBAL_UNCERTAINTY_ASSIGNED_CONTEXT ( ( #235 ) ) GLOBAL_UNIT_ASSIGNED_CONTEXT ( ( #128, #280, #114 ) ) REPRESENTATION_CONTEXT ( 'NONE', 'WORKASPACE' ) );
#252 = PRODUCT ( '352503', '352503', '', ( #159 ) ) ;
#253 = ORIENTED_EDGE ( 'NONE', *, *, #216, .T. ) ;
#254 = PRESENTATION_STYLE_ASSIGNMENT (( #301 ) ) ;
#255 = CARTESIAN_POINT ( 'NONE',  ( -10.00000000000000000, 0.0000000000000000000, -9.999999999999996400 ) ) ;
#256 = EDGE_CURVE ( 'NONE', #84, #4, #163, .T. ) ;
#257 = EDGE_CURVE ( 'NONE', #170, #246, #222, .T. ) ;
#258 = ADVANCED_FACE ( 'NONE', ( #215 ), #42, .T. ) ;
#259 = CARTESIAN_POINT ( 'NONE',  ( -10.00000000000000000, 10.00000000000000000, -9.999999999999996400 ) ) ;
#260 = AXIS2_PLACEMENT_3D ( 'NONE', #122, #120, #265 ) ;
#261 = CARTESIAN_POINT ( 'NONE',  ( 0.0000000000000000000, 0.0000000000000000000, 0.0000000000000000000 ) ) ;
#262 = VECTOR ( 'NONE', #88, 1000.000000000000000 ) ;
#263 = SHAPE_DEFINITION_REPRESENTATION ( #193, #89 ) ;
#264 = ORIENTED_EDGE ( 'NONE', *, *, #257, .T. ) ;
#265 = DIRECTION ( 'NONE',  ( 0.0000000000000000000, -0.0000000000000000000, 1.000000000000000000 ) ) ;
#266 = ORIENTED_EDGE ( 'NONE', *, *, #288, .T. ) ;
#267 = CLOSED_SHELL ( 'NONE', ( #238, #68, #284, #133, #95 ) ) ;
#268 = ORIENTED_EDGE ( 'NONE', *, *, #46, .T. ) ;
#269 = VECTOR ( 'NONE', #115, 1000.000000000000000 ) ;
#270 = APPLICATION_CONTEXT ( 'automotive_design' ) ;
#271 = VECTOR ( 'NONE', #177, 1000.000000000000000 ) ;
#272 = FILL_AREA_STYLE_COLOUR ( '', #116 ) ;
#273 = ORIENTED_EDGE ( 'NONE', *, *, #288, .F. ) ;
#274 = EDGE_CURVE ( 'NONE', #230, #170, #93, .T. ) ;
#275 = CARTESIAN_POINT ( 'NONE',  ( 0.0000000000000000000, 10.00000000000000000, -10.00000000000000000 ) ) ;
#276 = EDGE_CURVE ( 'NONE', #98, #56, #281, .T. ) ;
#277 = ORIENTED_EDGE ( 'NONE', *, *, #17, .T. ) ;
#278 = FACE_OUTER_BOUND ( 'NONE', #279, .T. ) ;
#279 = EDGE_LOOP ( 'NONE', ( #239, #96, #283, #182 ) ) ;
#280 =( NAMED_UNIT ( * ) PLANE_ANGLE_UNIT ( ) SI_UNIT ( $, .RADIAN. ) );
#281 = LINE ( 'NONE', #233, #25 ) ;
#282 = DIRECTION ( 'NONE',  ( -1.000000000000000000, 0.0000000000000000000, 3.469446951953614200E-016 ) ) ;
#283 = ORIENTED_EDGE ( 'NONE', *, *, #218, .T. ) ;
#284 = ADVANCED_FACE ( 'NONE', ( #83 ), #180, .F. ) ;
#285 = PLANE ( 'NONE',  #47 ) ;
#286 = EDGE_CURVE ( 'NONE', #102, #199, #130, .T. ) ;
#287 = PLANE ( 'NONE',  #260 ) ;
#288 = EDGE_CURVE ( 'NONE', #56, #292, #206, .T. ) ;
#289 = CARTESIAN_POINT ( 'NONE',  ( -10.00000000000000000, 10.00000000000000000, 0.0000000000000000000 ) ) ;
#290 = AXIS2_PLACEMENT_3D ( 'NONE', #146, #196, #33 ) ;
#291 = PLANE ( 'NONE',  #141 ) ;
#292 = VERTEX_POINT ( 'NONE', #127 ) ;
#293 = VECTOR ( 'NONE', #118, 1000.000000000000000 ) ;
#294 =( LENGTH_UNIT ( ) NAMED_UNIT ( * ) SI_UNIT ( .MILLI., .METRE. ) );
#295 =( NAMED_UNIT ( * ) PLANE_ANGLE_UNIT ( ) SI_UNIT ( $, .RADIAN. ) );
#296 = DIRECTION ( 'NONE',  ( 0.7071067811865474600, 0.0000000000000000000, -0.7071067811865476800 ) ) ;
#297 = AXIS2_PLACEMENT_3D ( 'NONE', #18, #296, #109 ) ;
#298 = PRESENTATION_STYLE_ASSIGNMENT (( #203 ) ) ;
#299 = DIRECTION ( 'NONE',  ( 0.0000000000000000000, 0.0000000000000000000, 1.000000000000000000 ) ) ;
#300 = CARTESIAN_POINT ( 'NONE',  ( -10.00000000000000000, 10.00000000000000000, 0.0000000000000000000 ) ) ;
#301 = SURFACE_STYLE_USAGE ( .BOTH. , #162 ) ;
ENDSEC;
END-ISO-10303-21;
