ISO-10303-21;
HEADER;
FILE_DESCRIPTION (( 'STEP AP203' ),
    '1' );
FILE_NAME ('199422.STEP',
    '2020-03-04T03:58:06',
    ( '' ),
    ( '' ),
    'SwSTEP 2.0',
    'SolidWorks 2019',
    '' );
FILE_SCHEMA (( 'CONFIG_CONTROL_DESIGN' ));
ENDSEC;

DATA;
#1 = COORDINATED_UNIVERSAL_TIME_OFFSET ( 8, 0, .AHEAD. ) ;
#2 = PLANE ( 'NONE',  #47 ) ;
#3 = DATE_AND_TIME ( #40, #14 ) ;
#4 = ORIENTED_EDGE ( 'NONE', *, *, #140, .F. ) ;
#5 = APPROVAL_ROLE ( '' ) ;
#6 = APPROVAL_STATUS ( 'not_yet_approved' ) ;
#7 = LOCAL_TIME ( 11, 58, 6.000000000000000000, #30 ) ;
#8 = CC_DESIGN_PERSON_AND_ORGANIZATION_ASSIGNMENT ( #119, #106, ( #125 ) ) ;
#9 = ADVANCED_FACE ( 'NONE', ( #164 ), #2, .F. ) ;
#10 = DIRECTION ( 'NONE',  ( 1.000000000000000000, 0.0000000000000000000, 0.0000000000000000000 ) ) ;
#11 = CARTESIAN_POINT ( 'NONE',  ( 0.0000000000000000000, 0.0000000000000000000, 0.0000000000000000000 ) ) ;
#12 = CYLINDRICAL_SURFACE ( 'NONE', #94, 6.249999999999998224 ) ;
#13 = SHAPE_DEFINITION_REPRESENTATION ( #49, #23 ) ;
#14 = LOCAL_TIME ( 11, 58, 6.000000000000000000, #108 ) ;
#15 = DIRECTION ( 'NONE',  ( 1.000000000000000000, 0.0000000000000000000, -0.0000000000000000000 ) ) ;
#16 = DATE_TIME_ROLE ( 'creation_date' ) ;
#17 = ORIENTED_EDGE ( 'NONE', *, *, #72, .T. ) ;
#18 = EDGE_CURVE ( 'NONE', #70, #31, #96, .T. ) ;
#19 = CIRCLE ( 'NONE', #59, 6.249999999999998224 ) ;
#20 = PERSON_AND_ORGANIZATION_ROLE ( 'creator' ) ;
#21 = CC_DESIGN_PERSON_AND_ORGANIZATION_ASSIGNMENT ( #43, #97, ( #117 ) ) ;
#22 = AXIS2_PLACEMENT_3D ( 'NONE', #48, #171, #101 ) ;
#23 = ADVANCED_BREP_SHAPE_REPRESENTATION ( '199422', ( #158, #174 ), #136 ) ;
#24 = FACE_OUTER_BOUND ( 'NONE', #67, .T. ) ;
#25 =( LENGTH_UNIT ( ) NAMED_UNIT ( * ) SI_UNIT ( .MILLI., .METRE. ) );
#26 = DIRECTION ( 'NONE',  ( 1.000000000000000000, 0.0000000000000000000, 0.0000000000000000000 ) ) ;
#27 = CALENDAR_DATE ( 2020, 4, 3 ) ;
#28 = ORIENTED_EDGE ( 'NONE', *, *, #18, .F. ) ;
#29 = CC_DESIGN_PERSON_AND_ORGANIZATION_ASSIGNMENT ( #113, #168, ( #151 ) ) ;
#30 = COORDINATED_UNIVERSAL_TIME_OFFSET ( 8, 0, .AHEAD. ) ;
#31 = VERTEX_POINT ( 'NONE', #155 ) ;
#32 = CC_DESIGN_APPROVAL ( #153, ( #45 ) ) ;
#33 = COORDINATED_UNIVERSAL_TIME_OFFSET ( 8, 0, .AHEAD. ) ;
#34 = CC_DESIGN_APPROVAL ( #85, ( #117 ) ) ;
#35 = CARTESIAN_POINT ( 'NONE',  ( 0.0000000000000000000, 0.0000000000000000000, 0.0000000000000000000 ) ) ;
#36 = DIRECTION ( 'NONE',  ( 0.0000000000000000000, 0.0000000000000000000, 1.000000000000000000 ) ) ;
#37 = DIRECTION ( 'NONE',  ( 0.0000000000000000000, 0.0000000000000000000, 1.000000000000000000 ) ) ;
#38 = CIRCLE ( 'NONE', #22, 6.249999999999998224 ) ;
#39 = CC_DESIGN_PERSON_AND_ORGANIZATION_ASSIGNMENT ( #138, #58, ( #45 ) ) ;
#40 = CALENDAR_DATE ( 2020, 4, 3 ) ;
#41 = ADVANCED_FACE ( 'NONE', ( #92 ), #12, .T. ) ;
#42 = VERTEX_POINT ( 'NONE', #64 ) ;
#43 = PERSON_AND_ORGANIZATION ( #109, #159 ) ;
#44 = ORIENTED_EDGE ( 'NONE', *, *, #161, .T. ) ;
#45 = PRODUCT_DEFINITION_FORMATION_WITH_SPECIFIED_SOURCE ( 'ÈÎºÎ', '', #125, .NOT_KNOWN. ) ;
#46 = CALENDAR_DATE ( 2020, 4, 3 ) ;
#47 = AXIS2_PLACEMENT_3D ( 'NONE', #55, #107, #15 ) ;
#48 = CARTESIAN_POINT ( 'NONE',  ( 0.0000000000000000000, 0.0000000000000000000, 2.000000000000000000 ) ) ;
#49 = PRODUCT_DEFINITION_SHAPE ( 'NONE', 'NONE',  #117 ) ;
#50 =( NAMED_UNIT ( * ) PLANE_ANGLE_UNIT ( ) SI_UNIT ( $, .RADIAN. ) );
#51 = CARTESIAN_POINT ( 'NONE',  ( 0.0000000000000000000, 0.0000000000000000000, 2.000000000000000000 ) ) ;
#52 = FACE_OUTER_BOUND ( 'NONE', #139, .T. ) ;
#53 = AXIS2_PLACEMENT_3D ( 'NONE', #51, #103, #157 ) ;
#54 = APPROVAL_STATUS ( 'not_yet_approved' ) ;
#55 = CARTESIAN_POINT ( 'NONE',  ( 0.0000000000000000000, 0.0000000000000000000, 0.0000000000000000000 ) ) ;
#56 = APPROVAL_DATE_TIME ( #3, #85 ) ;
#57 = ORIENTED_EDGE ( 'NONE', *, *, #161, .F. ) ;
#58 = PERSON_AND_ORGANIZATION_ROLE ( 'design_supplier' ) ;
#59 = AXIS2_PLACEMENT_3D ( 'NONE', #11, #116, #160 ) ;
#60 = APPROVAL_DATE_TIME ( #61, #153 ) ;
#61 = DATE_AND_TIME ( #75, #104 ) ;
#62 = DIRECTION ( 'NONE',  ( -1.000000000000000000, 0.0000000000000000000, 0.0000000000000000000 ) ) ;
#63 = CARTESIAN_POINT ( 'NONE',  ( 6.249999999999998224, 7.654042494670955634E-16, 0.0000000000000000000 ) ) ;
#64 = CARTESIAN_POINT ( 'NONE',  ( 6.249999999999998224, 7.654042494670955634E-16, 2.000000000000000000 ) ) ;
#65 = LOCAL_TIME ( 11, 58, 6.000000000000000000, #130 ) ;
#66 = EDGE_CURVE ( 'NONE', #165, #31, #19, .T. ) ;
#67 = EDGE_LOOP ( 'NONE', ( #57, #82, #121, #28 ) ) ;
#68 = DIRECTION ( 'NONE',  ( -0.0000000000000000000, -0.0000000000000000000, -1.000000000000000000 ) ) ;
#69 = PERSON_AND_ORGANIZATION ( #109, #159 ) ;
#70 = VERTEX_POINT ( 'NONE', #79 ) ;
#71 = AXIS2_PLACEMENT_3D ( 'NONE', #127, #36, #26 ) ;
#72 = EDGE_CURVE ( 'NONE', #70, #42, #146, .T. ) ;
#73 = DATE_TIME_ROLE ( 'classification_date' ) ;
#74 = LOCAL_TIME ( 11, 58, 6.000000000000000000, #33 ) ;
#75 = CALENDAR_DATE ( 2020, 4, 3 ) ;
#76 = PLANE ( 'NONE',  #169 ) ;
#77 = CC_DESIGN_PERSON_AND_ORGANIZATION_ASSIGNMENT ( #154, #20, ( #45 ) ) ;
#78 = APPLICATION_CONTEXT ( 'configuration controlled 3d designs of mechanical parts and assemblies' ) ;
#79 = CARTESIAN_POINT ( 'NONE',  ( -6.249999999999998224, 0.0000000000000000000, 2.000000000000000000 ) ) ;
#80 = APPROVAL_DATE_TIME ( #93, #120 ) ;
#81 = DIRECTION ( 'NONE',  ( 1.000000000000000000, 0.0000000000000000000, 0.0000000000000000000 ) ) ;
#82 = ORIENTED_EDGE ( 'NONE', *, *, #140, .T. ) ;
#83 = CALENDAR_DATE ( 2020, 4, 3 ) ;
#84 = ORIENTED_EDGE ( 'NONE', *, *, #66, .F. ) ;
#85 = APPROVAL ( #54, 'Î´Ö¸¶¨' ) ;
#86 = APPROVAL_PERSON_ORGANIZATION ( #95, #85, #162 ) ;
#87 = DATE_AND_TIME ( #46, #74 ) ;
#88 = AXIS2_PLACEMENT_3D ( 'NONE', #126, #170, #10 ) ;
#89 = UNCERTAINTY_MEASURE_WITH_UNIT (LENGTH_MEASURE( 1.000000000000000082E-05 ), #25, 'distance_accuracy_value', 'NONE');
#90 = CC_DESIGN_DATE_AND_TIME_ASSIGNMENT ( #134, #16, ( #117 ) ) ;
#91 = LINE ( 'NONE', #115, #114 ) ;
#92 = FACE_OUTER_BOUND ( 'NONE', #133, .T. ) ;
#93 = DATE_AND_TIME ( #27, #65 ) ;
#94 = AXIS2_PLACEMENT_3D ( 'NONE', #144, #129, #62 ) ;
#95 = PERSON_AND_ORGANIZATION ( #109, #159 ) ;
#96 = LINE ( 'NONE', #148, #137 ) ;
#97 = PERSON_AND_ORGANIZATION_ROLE ( 'creator' ) ;
#98 = ORIENTED_EDGE ( 'NONE', *, *, #175, .F. ) ;
#99 = SECURITY_CLASSIFICATION_LEVEL ( 'unclassified' ) ;
#100 = DESIGN_CONTEXT ( 'detailed design', #78, 'design' ) ;
#101 = DIRECTION ( 'NONE',  ( 1.000000000000000000, 0.0000000000000000000, 0.0000000000000000000 ) ) ;
#102 = CC_DESIGN_APPROVAL ( #120, ( #151 ) ) ;
#103 = DIRECTION ( 'NONE',  ( -0.0000000000000000000, -0.0000000000000000000, -1.000000000000000000 ) ) ;
#104 = LOCAL_TIME ( 11, 58, 6.000000000000000000, #1 ) ;
#105 = CARTESIAN_POINT ( 'NONE',  ( 0.0000000000000000000, 0.0000000000000000000, 2.000000000000000000 ) ) ;
#106 = PERSON_AND_ORGANIZATION_ROLE ( 'design_owner' ) ;
#107 = DIRECTION ( 'NONE',  ( 0.0000000000000000000, 0.0000000000000000000, 1.000000000000000000 ) ) ;
#108 = COORDINATED_UNIVERSAL_TIME_OFFSET ( 8, 0, .AHEAD. ) ;
#109 = PERSON ( 'Î´Ö¸¶¨', 'Î´Ö¸¶¨', 'Î´Ö¸¶¨', ('Î´Ö¸¶¨'), ('Î´Ö¸¶¨'), ('Î´Ö¸¶¨') ) ;
#110 = ORIENTED_EDGE ( 'NONE', *, *, #18, .T. ) ;
#111 = ADVANCED_FACE ( 'NONE', ( #52 ), #76, .T. ) ;
#112 = CC_DESIGN_SECURITY_CLASSIFICATION ( #151, ( #45 ) ) ;
#113 = PERSON_AND_ORGANIZATION ( #109, #159 ) ;
#114 = VECTOR ( 'NONE', #143, 1000.000000000000000 ) ;
#115 = CARTESIAN_POINT ( 'NONE',  ( 6.249999999999998224, 7.654042494670955634E-16, 2.000000000000000000 ) ) ;
#116 = DIRECTION ( 'NONE',  ( 0.0000000000000000000, 0.0000000000000000000, 1.000000000000000000 ) ) ;
#117 = PRODUCT_DEFINITION ( 'Î´Öª', '', #45, #100 ) ;
#118 = EDGE_LOOP ( 'NONE', ( #98, #84 ) ) ;
#119 = PERSON_AND_ORGANIZATION ( #109, #159 ) ;
#120 = APPROVAL ( #6, 'Î´Ö¸¶¨' ) ;
#121 = ORIENTED_EDGE ( 'NONE', *, *, #66, .T. ) ;
#122 = APPROVAL_STATUS ( 'not_yet_approved' ) ;
#123 = PERSON_AND_ORGANIZATION ( #109, #159 ) ;
#124 = CC_DESIGN_DATE_AND_TIME_ASSIGNMENT ( #87, #73, ( #151 ) ) ;
#125 = PRODUCT ( '199422', '199422', '', ( #132 ) ) ;
#126 = CARTESIAN_POINT ( 'NONE',  ( 0.0000000000000000000, 0.0000000000000000000, 0.0000000000000000000 ) ) ;
#127 = CARTESIAN_POINT ( 'NONE',  ( 0.0000000000000000000, 0.0000000000000000000, 2.000000000000000000 ) ) ;
#128 =( NAMED_UNIT ( * ) SI_UNIT ( $, .STERADIAN. ) SOLID_ANGLE_UNIT ( ) );
#129 = DIRECTION ( 'NONE',  ( -0.0000000000000000000, -0.0000000000000000000, -1.000000000000000000 ) ) ;
#130 = COORDINATED_UNIVERSAL_TIME_OFFSET ( 8, 0, .AHEAD. ) ;
#131 = APPROVAL_PERSON_ORGANIZATION ( #69, #153, #5 ) ;
#132 = MECHANICAL_CONTEXT ( 'NONE', #166, 'mechanical' ) ;
#133 = EDGE_LOOP ( 'NONE', ( #4, #135, #110, #150 ) ) ;
#134 = DATE_AND_TIME ( #83, #7 ) ;
#135 = ORIENTED_EDGE ( 'NONE', *, *, #72, .F. ) ;
#136 =( GEOMETRIC_REPRESENTATION_CONTEXT ( 3 ) GLOBAL_UNCERTAINTY_ASSIGNED_CONTEXT ( ( #89 ) ) GLOBAL_UNIT_ASSIGNED_CONTEXT ( ( #25, #50, #128 ) ) REPRESENTATION_CONTEXT ( 'NONE', 'WORKASPACE' ) );
#137 = VECTOR ( 'NONE', #68, 1000.000000000000000 ) ;
#138 = PERSON_AND_ORGANIZATION ( #109, #159 ) ;
#139 = EDGE_LOOP ( 'NONE', ( #17, #44 ) ) ;
#140 = EDGE_CURVE ( 'NONE', #42, #165, #91, .T. ) ;
#141 = APPROVAL_PERSON_ORGANIZATION ( #123, #120, #145 ) ;
#142 = DIRECTION ( 'NONE',  ( 0.0000000000000000000, 0.0000000000000000000, 1.000000000000000000 ) ) ;
#143 = DIRECTION ( 'NONE',  ( -0.0000000000000000000, -0.0000000000000000000, -1.000000000000000000 ) ) ;
#144 = CARTESIAN_POINT ( 'NONE',  ( 0.0000000000000000000, 0.0000000000000000000, 2.000000000000000000 ) ) ;
#145 = APPROVAL_ROLE ( '' ) ;
#146 = CIRCLE ( 'NONE', #71, 6.249999999999998224 ) ;
#147 = APPLICATION_PROTOCOL_DEFINITION ( 'international standard', 'config_control_design', 1994, #78 ) ;
#148 = CARTESIAN_POINT ( 'NONE',  ( -6.249999999999998224, 0.0000000000000000000, 2.000000000000000000 ) ) ;
#149 = APPLICATION_PROTOCOL_DEFINITION ( 'international standard', 'config_control_design', 1994, #166 ) ;
#150 = ORIENTED_EDGE ( 'NONE', *, *, #175, .T. ) ;
#151 = SECURITY_CLASSIFICATION ( '', '', #99 ) ;
#152 = PRODUCT_RELATED_PRODUCT_CATEGORY ( 'detail', '', ( #125 ) ) ;
#153 = APPROVAL ( #122, 'Î´Ö¸¶¨' ) ;
#154 = PERSON_AND_ORGANIZATION ( #109, #159 ) ;
#155 = CARTESIAN_POINT ( 'NONE',  ( -6.249999999999998224, 0.0000000000000000000, 0.0000000000000000000 ) ) ;
#156 = ADVANCED_FACE ( 'NONE', ( #24 ), #173, .T. ) ;
#157 = DIRECTION ( 'NONE',  ( -1.000000000000000000, 0.0000000000000000000, 0.0000000000000000000 ) ) ;
#158 = MANIFOLD_SOLID_BREP ( 'Í¹Ì¨-À­Éì1', #163 ) ;
#159 = ORGANIZATION ( 'Î´Ö¸¶¨', 'Î´Ö¸¶¨', '' ) ;
#160 = DIRECTION ( 'NONE',  ( 1.000000000000000000, 0.0000000000000000000, 0.0000000000000000000 ) ) ;
#161 = EDGE_CURVE ( 'NONE', #42, #70, #38, .T. ) ;
#162 = APPROVAL_ROLE ( '' ) ;
#163 = CLOSED_SHELL ( 'NONE', ( #156, #41, #111, #9 ) ) ;
#164 = FACE_OUTER_BOUND ( 'NONE', #118, .T. ) ;
#165 = VERTEX_POINT ( 'NONE', #63 ) ;
#166 = APPLICATION_CONTEXT ( 'configuration controlled 3d designs of mechanical parts and assemblies' ) ;
#167 = CIRCLE ( 'NONE', #88, 6.249999999999998224 ) ;
#168 = PERSON_AND_ORGANIZATION_ROLE ( 'classification_officer' ) ;
#169 = AXIS2_PLACEMENT_3D ( 'NONE', #105, #37, #172 ) ;
#170 = DIRECTION ( 'NONE',  ( 0.0000000000000000000, 0.0000000000000000000, 1.000000000000000000 ) ) ;
#171 = DIRECTION ( 'NONE',  ( 0.0000000000000000000, 0.0000000000000000000, 1.000000000000000000 ) ) ;
#172 = DIRECTION ( 'NONE',  ( 1.000000000000000000, 0.0000000000000000000, -0.0000000000000000000 ) ) ;
#173 = CYLINDRICAL_SURFACE ( 'NONE', #53, 6.249999999999998224 ) ;
#174 = AXIS2_PLACEMENT_3D ( 'NONE', #35, #142, #81 ) ;
#175 = EDGE_CURVE ( 'NONE', #31, #165, #167, .T. ) ;
ENDSEC;
END-ISO-10303-21;
