ISO-10303-21;
HEADER;
FILE_DESCRIPTION (( 'STEP AP214' ),
    '1' );
FILE_NAME ('GNIF-140-3330-D10.STEP',
    '2024-07-19T14:38:36',
    ( '' ),
    ( '' ),
    'SwSTEP 2.0',
    'SolidWorks 2022',
    '' );
FILE_SCHEMA (( 'AUTOMOTIVE_DESIGN' ));
ENDSEC;

DATA;
#1 = DIRECTION ( 'NONE',  ( -0.000000000000000000, -0.000000000000000000, -1.000000000000000000 ) ) ;
#2 = LINE ( 'NONE', #154, #172 ) ;
#3 = EDGE_LOOP ( 'NONE', ( #93, #77 ) ) ;
#4 = DIRECTION ( 'NONE',  ( 0.000000000000000000, 0.000000000000000000, -1.000000000000000000 ) ) ;
#5 = VECTOR ( 'NONE', #166, 1000.000000000000000 ) ;
#6 = DIRECTION ( 'NONE',  ( 1.000000000000000000, 0.000000000000000000, 0.000000000000000000 ) ) ;
#7 = EDGE_CURVE ( 'NONE', #211, #137, #132, .T. ) ;
#8 = PRESENTATION_LAYER_ASSIGNMENT (  '', '', ( #59 ) ) ;
#9 = CARTESIAN_POINT ( 'NONE',  ( 0.000000000000000000, 0.000000000000000000, 1.000000000000000000 ) ) ;
#10 = EDGE_CURVE ( 'NONE', #196, #40, #97, .T. ) ;
#11 = CLOSED_SHELL ( 'NONE', ( #135, #41, #15, #145, #168, #150, #214, #105 ) ) ;
#12 = CIRCLE ( 'NONE', #101, 4.800000000000002487 ) ;
#13 = PRODUCT_CONTEXT ( 'NONE', #173, 'mechanical' ) ;
#14 = FACE_OUTER_BOUND ( 'NONE', #227, .T. ) ;
#15 = ADVANCED_FACE ( 'NONE', ( #209 ), #34, .T. ) ;
#16 = CARTESIAN_POINT ( 'NONE',  ( 0.000000000000000000, 0.000000000000000000, 0.8000000000000012657 ) ) ;
#17 = CIRCLE ( 'NONE', #75, 5.000000000000000000 ) ;
#18 = SURFACE_STYLE_FILL_AREA ( #76 ) ;
#19 = COLOUR_RGB ( '',1.000000000000000000, 1.000000000000000000, 1.000000000000000000 ) ;
#20 = ORIENTED_EDGE ( 'NONE', *, *, #7, .F. ) ;
#21 = DIRECTION ( 'NONE',  ( -1.000000000000000000, 0.000000000000000000, 0.000000000000000000 ) ) ;
#22 =( NAMED_UNIT ( * ) PLANE_ANGLE_UNIT ( ) SI_UNIT ( $, .RADIAN. ) );
#23 = ORIENTED_EDGE ( 'NONE', *, *, #222, .F. ) ;
#24 = DIRECTION ( 'NONE',  ( 1.000000000000000000, 0.000000000000000000, -0.000000000000000000 ) ) ;
#25 = CONICAL_SURFACE ( 'NONE', #165, 5.000000000000000000, 0.7853981633974503884 ) ;
#26 = CARTESIAN_POINT ( 'NONE',  ( 0.000000000000000000, 0.000000000000000000, 0.000000000000000000 ) ) ;
#27 = DIRECTION ( 'NONE',  ( 1.000000000000000000, 0.000000000000000000, -0.000000000000000000 ) ) ;
#28 = AXIS2_PLACEMENT_3D ( 'NONE', #58, #74, #36 ) ;
#29 = FACE_OUTER_BOUND ( 'NONE', #35, .T. ) ;
#30 = AXIS2_PLACEMENT_3D ( 'NONE', #91, #194, #170 ) ;
#31 = PRODUCT ( 'GNIF-140-3330-D10', 'GNIF-140-3330-D10', '', ( #13 ) ) ;
#32 = FACE_OUTER_BOUND ( 'NONE', #152, .T. ) ;
#33 = ORIENTED_EDGE ( 'NONE', *, *, #10, .F. ) ;
#34 = CYLINDRICAL_SURFACE ( 'NONE', #151, 5.000000000000000000 ) ;
#35 = EDGE_LOOP ( 'NONE', ( #133, #79, #60, #213 ) ) ;
#36 = DIRECTION ( 'NONE',  ( 1.000000000000000000, 0.000000000000000000, 0.000000000000000000 ) ) ;
#37 = EDGE_LOOP ( 'NONE', ( #61, #231, #178, #78 ) ) ;
#38 = DIRECTION ( 'NONE',  ( -0.000000000000000000, -0.000000000000000000, 1.000000000000000000 ) ) ;
#39 = EDGE_LOOP ( 'NONE', ( #174, #206, #156, #153 ) ) ;
#40 = VERTEX_POINT ( 'NONE', #223 ) ;
#41 = ADVANCED_FACE ( 'NONE', ( #32 ), #144, .T. ) ;
#42 = PLANE ( 'NONE',  #81 ) ;
#43 = CARTESIAN_POINT ( 'NONE',  ( 4.799999999999999822, 0.000000000000000000, 0.000000000000000000 ) ) ;
#44 = VECTOR ( 'NONE', #228, 1000.000000000000114 ) ;
#45 = APPLICATION_PROTOCOL_DEFINITION ( 'draft international standard', 'automotive_design', 1998, #220 ) ;
#46 = MECHANICAL_DESIGN_GEOMETRIC_PRESENTATION_REPRESENTATION (  '', ( #59 ), #192 ) ;
#47 = DIRECTION ( 'NONE',  ( 1.000000000000000000, 0.000000000000000000, 0.000000000000000000 ) ) ;
#48 = EDGE_CURVE ( 'NONE', #175, #114, #191, .T. ) ;
#49 = DIRECTION ( 'NONE',  ( 1.000000000000000000, 0.000000000000000000, 0.000000000000000000 ) ) ;
#50 = LINE ( 'NONE', #225, #44 ) ;
#51 = EDGE_CURVE ( 'NONE', #210, #196, #113, .T. ) ;
#52 = CONICAL_SURFACE ( 'NONE', #87, 4.800000000000002487, 0.7853981633974461696 ) ;
#53 = ORIENTED_EDGE ( 'NONE', *, *, #222, .T. ) ;
#54 = EDGE_LOOP ( 'NONE', ( #193, #89, #84, #23 ) ) ;
#55 = SURFACE_SIDE_STYLE ('',( #18 ) ) ;
#56 =( NAMED_UNIT ( * ) SI_UNIT ( $, .STERADIAN. ) SOLID_ANGLE_UNIT ( ) );
#57 = AXIS2_PLACEMENT_3D ( 'NONE', #109, #110, #149 ) ;
#58 = CARTESIAN_POINT ( 'NONE',  ( 0.000000000000000000, 0.000000000000000000, 1.000000000000000000 ) ) ;
#59 = STYLED_ITEM ( 'NONE', ( #184 ), #131 ) ;
#60 = ORIENTED_EDGE ( 'NONE', *, *, #203, .T. ) ;
#61 = ORIENTED_EDGE ( 'NONE', *, *, #63, .T. ) ;
#62 = LINE ( 'NONE', #85, #219 ) ;
#63 = EDGE_CURVE ( 'NONE', #114, #175, #17, .T. ) ;
#64 = PRESENTATION_LAYER_ASSIGNMENT (  '', '', ( #119 ) ) ;
#65 = UNCERTAINTY_MEASURE_WITH_UNIT (LENGTH_MEASURE( 1.000000000000000082E-05 ), #237, 'distance_accuracy_value', 'NONE');
#66 = DIRECTION ( 'NONE',  ( 1.000000000000000000, 0.000000000000000000, 0.000000000000000000 ) ) ;
#67 = DIRECTION ( 'NONE',  ( -0.7071067811865460184, 0.000000000000000000, -0.7071067811865489050 ) ) ;
#68 = CARTESIAN_POINT ( 'NONE',  ( 0.000000000000000000, 0.000000000000000000, 1.000000000000000000 ) ) ;
#69 = AXIS2_PLACEMENT_3D ( 'NONE', #104, #106, #49 ) ;
#70 = DIRECTION ( 'NONE',  ( 0.000000000000000000, 0.000000000000000000, 1.000000000000000000 ) ) ;
#71 = PRODUCT_DEFINITION_SHAPE ( 'NONE', 'NONE',  #160 ) ;
#72 = AXIS2_PLACEMENT_3D ( 'NONE', #99, #181, #159 ) ;
#73 = ORIENTED_EDGE ( 'NONE', *, *, #96, .T. ) ;
#74 = DIRECTION ( 'NONE',  ( 0.000000000000000000, 0.000000000000000000, 1.000000000000000000 ) ) ;
#75 = AXIS2_PLACEMENT_3D ( 'NONE', #16, #130, #195 ) ;
#76 = FILL_AREA_STYLE ('',( #188 ) ) ;
#77 = ORIENTED_EDGE ( 'NONE', *, *, #164, .T. ) ;
#78 = ORIENTED_EDGE ( 'NONE', *, *, #203, .F. ) ;
#79 = ORIENTED_EDGE ( 'NONE', *, *, #48, .T. ) ;
#80 = ORIENTED_EDGE ( 'NONE', *, *, #187, .F. ) ;
#81 = AXIS2_PLACEMENT_3D ( 'NONE', #86, #142, #27 ) ;
#82 = LINE ( 'NONE', #230, #5 ) ;
#83 =( GEOMETRIC_REPRESENTATION_CONTEXT ( 3 ) GLOBAL_UNCERTAINTY_ASSIGNED_CONTEXT ( ( #234 ) ) GLOBAL_UNIT_ASSIGNED_CONTEXT ( ( #103, #205, #143 ) ) REPRESENTATION_CONTEXT ( 'NONE', 'WORKASPACE' ) );
#84 = ORIENTED_EDGE ( 'NONE', *, *, #185, .F. ) ;
#85 = CARTESIAN_POINT ( 'NONE',  ( -4.800000000000002487, 0.000000000000000000, 1.000000000000000000 ) ) ;
#86 = CARTESIAN_POINT ( 'NONE',  ( 0.000000000000000000, 0.000000000000000000, 1.000000000000000000 ) ) ;
#87 = AXIS2_PLACEMENT_3D ( 'NONE', #9, #4, #218 ) ;
#88 = VECTOR ( 'NONE', #115, 1000.000000000000000 ) ;
#89 = ORIENTED_EDGE ( 'NONE', *, *, #51, .T. ) ;
#90 = PRODUCT_DEFINITION_CONTEXT ( 'detailed design', #220, 'design' ) ;
#91 = CARTESIAN_POINT ( 'NONE',  ( 0.000000000000000000, 0.000000000000000000, 0.1999999999999996503 ) ) ;
#92 = CARTESIAN_POINT ( 'NONE',  ( -5.000000000000000000, 0.000000000000000000, 0.8000000000000012657 ) ) ;
#93 = ORIENTED_EDGE ( 'NONE', *, *, #140, .T. ) ;
#94 = DIRECTION ( 'NONE',  ( -0.000000000000000000, -0.000000000000000000, -1.000000000000000000 ) ) ;
#95 = ORIENTED_EDGE ( 'NONE', *, *, #226, .T. ) ;
#96 = EDGE_CURVE ( 'NONE', #211, #175, #50, .T. ) ;
#97 = CIRCLE ( 'NONE', #57, 5.000000000000000000 ) ;
#98 = DIRECTION ( 'NONE',  ( -0.000000000000000000, -0.000000000000000000, 1.000000000000000000 ) ) ;
#99 = CARTESIAN_POINT ( 'NONE',  ( 0.000000000000000000, 0.000000000000000000, 1.000000000000000000 ) ) ;
#100 = CARTESIAN_POINT ( 'NONE',  ( 4.800000000000002487, 6.000769315822031726E-16, 1.000000000000000000 ) ) ;
#101 = AXIS2_PLACEMENT_3D ( 'NONE', #68, #70, #47 ) ;
#102 = FACE_OUTER_BOUND ( 'NONE', #39, .T. ) ;
#103 =( LENGTH_UNIT ( ) NAMED_UNIT ( * ) SI_UNIT ( .MILLI., .METRE. ) );
#104 = CARTESIAN_POINT ( 'NONE',  ( 0.000000000000000000, 0.000000000000000000, 0.000000000000000000 ) ) ;
#105 = ADVANCED_FACE ( 'NONE', ( #14 ), #139, .T. ) ;
#106 = DIRECTION ( 'NONE',  ( 0.000000000000000000, 0.000000000000000000, 1.000000000000000000 ) ) ;
#107 = APPLICATION_PROTOCOL_DEFINITION ( 'draft international standard', 'automotive_design', 1998, #173 ) ;
#108 = UNCERTAINTY_MEASURE_WITH_UNIT (LENGTH_MEASURE( 1.000000000000000082E-05 ), #112, 'distance_accuracy_value', 'NONE');
#109 = CARTESIAN_POINT ( 'NONE',  ( 0.000000000000000000, 0.000000000000000000, 0.1999999999999996503 ) ) ;
#110 = DIRECTION ( 'NONE',  ( -0.000000000000000000, -0.000000000000000000, 1.000000000000000000 ) ) ;
#111 = ORIENTED_EDGE ( 'NONE', *, *, #63, .F. ) ;
#112 =( LENGTH_UNIT ( ) NAMED_UNIT ( * ) SI_UNIT ( .MILLI., .METRE. ) );
#113 = LINE ( 'NONE', #190, #88 ) ;
#114 = VERTEX_POINT ( 'NONE', #92 ) ;
#115 = DIRECTION ( 'NONE',  ( -0.7071067811865490160, 8.659560562354950115E-17, 0.7071067811865459074 ) ) ;
#116 = EDGE_CURVE ( 'NONE', #175, #40, #2, .T. ) ;
#117 = ORIENTED_EDGE ( 'NONE', *, *, #7, .T. ) ;
#118 = FACE_OUTER_BOUND ( 'NONE', #3, .T. ) ;
#119 = STYLED_ITEM ( 'NONE', ( #128 ), #126 ) ;
#120 = LINE ( 'NONE', #163, #122 ) ;
#121 = FACE_OUTER_BOUND ( 'NONE', #158, .T. ) ;
#122 = VECTOR ( 'NONE', #216, 1000.000000000000000 ) ;
#123 = FILL_AREA_STYLE_COLOUR ( '', #19 ) ;
#124 = AXIS2_PLACEMENT_3D ( 'NONE', #26, #157, #141 ) ;
#125 = PRODUCT_DEFINITION_FORMATION_WITH_SPECIFIED_SOURCE ( 'ÈÎºÎ', '', #31, .NOT_KNOWN. ) ;
#126 = MANIFOLD_SOLID_BREP ( 'µ¹½Ç1', #11 ) ;
#127 = SURFACE_STYLE_USAGE ( .BOTH. , #204 ) ;
#128 = PRESENTATION_STYLE_ASSIGNMENT (( #212 ) ) ;
#129 = AXIS2_PLACEMENT_3D ( 'NONE', #177, #169, #240 ) ;
#130 = DIRECTION ( 'NONE',  ( 0.000000000000000000, 0.000000000000000000, -1.000000000000000000 ) ) ;
#131 = ADVANCED_BREP_SHAPE_REPRESENTATION ( 'GNIF-140-3330-D10', ( #126, #69 ), #83 ) ;
#132 = CIRCLE ( 'NONE', #28, 4.800000000000002487 ) ;
#133 = ORIENTED_EDGE ( 'NONE', *, *, #116, .F. ) ;
#134 = FACE_OUTER_BOUND ( 'NONE', #54, .T. ) ;
#135 = ADVANCED_FACE ( 'NONE', ( #134 ), #25, .T. ) ;
#136 = CARTESIAN_POINT ( 'NONE',  ( -4.800000000000002487, 0.000000000000000000, 1.000000000000000000 ) ) ;
#137 = VERTEX_POINT ( 'NONE', #136 ) ;
#138 = CARTESIAN_POINT ( 'NONE',  ( -5.000000000000000000, 0.000000000000000000, 0.1999999999999996503 ) ) ;
#139 = CONICAL_SURFACE ( 'NONE', #30, 5.000000000000000000, 0.7853981633974503884 ) ;
#140 = EDGE_CURVE ( 'NONE', #215, #210, #146, .T. ) ;
#141 = DIRECTION ( 'NONE',  ( 1.000000000000000000, 0.000000000000000000, 0.000000000000000000 ) ) ;
#142 = DIRECTION ( 'NONE',  ( 0.000000000000000000, 0.000000000000000000, 1.000000000000000000 ) ) ;
#143 =( NAMED_UNIT ( * ) SI_UNIT ( $, .STERADIAN. ) SOLID_ANGLE_UNIT ( ) );
#144 = CONICAL_SURFACE ( 'NONE', #129, 4.800000000000002487, 0.7853981633974461696 ) ;
#145 = ADVANCED_FACE ( 'NONE', ( #29 ), #179, .T. ) ;
#146 = CIRCLE ( 'NONE', #124, 4.799999999999999822 ) ;
#147 =( NAMED_UNIT ( * ) PLANE_ANGLE_UNIT ( ) SI_UNIT ( $, .RADIAN. ) );
#148 = CARTESIAN_POINT ( 'NONE',  ( 0.000000000000000000, 0.000000000000000000, 0.8000000000000012657 ) ) ;
#149 = DIRECTION ( 'NONE',  ( 1.000000000000000000, 0.000000000000000000, 0.000000000000000000 ) ) ;
#150 = ADVANCED_FACE ( 'NONE', ( #118 ), #197, .F. ) ;
#151 = AXIS2_PLACEMENT_3D ( 'NONE', #224, #94, #21 ) ;
#152 = EDGE_LOOP ( 'NONE', ( #20, #73, #111, #80 ) ) ;
#153 = ORIENTED_EDGE ( 'NONE', *, *, #48, .F. ) ;
#154 = CARTESIAN_POINT ( 'NONE',  ( 5.000000000000000000, 6.123233995736766282E-16, 1.000000000000000000 ) ) ;
#155 = ORIENTED_EDGE ( 'NONE', *, *, #51, .F. ) ;
#156 = ORIENTED_EDGE ( 'NONE', *, *, #187, .T. ) ;
#157 = DIRECTION ( 'NONE',  ( -0.000000000000000000, -0.000000000000000000, -1.000000000000000000 ) ) ;
#158 = EDGE_LOOP ( 'NONE', ( #95, #117 ) ) ;
#159 = DIRECTION ( 'NONE',  ( -1.000000000000000000, 0.000000000000000000, 0.000000000000000000 ) ) ;
#160 = PRODUCT_DEFINITION ( 'Î´Öª', '', #125, #90 ) ;
#161 =( GEOMETRIC_REPRESENTATION_CONTEXT ( 3 ) GLOBAL_UNCERTAINTY_ASSIGNED_CONTEXT ( ( #108 ) ) GLOBAL_UNIT_ASSIGNED_CONTEXT ( ( #112, #22, #56 ) ) REPRESENTATION_CONTEXT ( 'NONE', 'WORKASPACE' ) );
#162 = DIRECTION ( 'NONE',  ( 0.000000000000000000, 0.000000000000000000, 1.000000000000000000 ) ) ;
#163 = CARTESIAN_POINT ( 'NONE',  ( -5.000000000000000000, 0.000000000000000000, 1.000000000000000000 ) ) ;
#164 = EDGE_CURVE ( 'NONE', #210, #215, #182, .T. ) ;
#165 = AXIS2_PLACEMENT_3D ( 'NONE', #176, #38, #232 ) ;
#166 = DIRECTION ( 'NONE',  ( 0.7071067811865490160, 0.000000000000000000, 0.7071067811865459074 ) ) ;
#167 = AXIS2_PLACEMENT_3D ( 'NONE', #198, #235, #66 ) ;
#168 = ADVANCED_FACE ( 'NONE', ( #121 ), #42, .T. ) ;
#169 = DIRECTION ( 'NONE',  ( 0.000000000000000000, 0.000000000000000000, -1.000000000000000000 ) ) ;
#170 = DIRECTION ( 'NONE',  ( 1.000000000000000000, 0.000000000000000000, 0.000000000000000000 ) ) ;
#171 = COLOUR_RGB ( '',1.000000000000000000, 1.000000000000000000, 1.000000000000000000 ) ;
#172 = VECTOR ( 'NONE', #1, 1000.000000000000000 ) ;
#173 = APPLICATION_CONTEXT ( 'automotive_design' ) ;
#174 = ORIENTED_EDGE ( 'NONE', *, *, #96, .F. ) ;
#175 = VERTEX_POINT ( 'NONE', #233 ) ;
#176 = CARTESIAN_POINT ( 'NONE',  ( 0.000000000000000000, 0.000000000000000000, 0.1999999999999996503 ) ) ;
#177 = CARTESIAN_POINT ( 'NONE',  ( 0.000000000000000000, 0.000000000000000000, 1.000000000000000000 ) ) ;
#178 = ORIENTED_EDGE ( 'NONE', *, *, #185, .T. ) ;
#179 = CYLINDRICAL_SURFACE ( 'NONE', #72, 5.000000000000000000 ) ;
#180 = PRODUCT_RELATED_PRODUCT_CATEGORY ( 'part', '', ( #31 ) ) ;
#181 = DIRECTION ( 'NONE',  ( -0.000000000000000000, -0.000000000000000000, -1.000000000000000000 ) ) ;
#182 = CIRCLE ( 'NONE', #167, 4.799999999999999822 ) ;
#183 = AXIS2_PLACEMENT_3D ( 'NONE', #148, #207, #189 ) ;
#184 = PRESENTATION_STYLE_ASSIGNMENT (( #127 ) ) ;
#185 = EDGE_CURVE ( 'NONE', #40, #196, #238, .T. ) ;
#186 = AXIS2_PLACEMENT_3D ( 'NONE', #217, #162, #24 ) ;
#187 = EDGE_CURVE ( 'NONE', #137, #114, #62, .T. ) ;
#188 = FILL_AREA_STYLE_COLOUR ( '', #171 ) ;
#189 = DIRECTION ( 'NONE',  ( 1.000000000000000000, 0.000000000000000000, 0.000000000000000000 ) ) ;
#190 = CARTESIAN_POINT ( 'NONE',  ( -5.000000000000000000, 6.123233995736765296E-16, 0.1999999999999996503 ) ) ;
#191 = CIRCLE ( 'NONE', #183, 5.000000000000000000 ) ;
#192 =( GEOMETRIC_REPRESENTATION_CONTEXT ( 3 ) GLOBAL_UNCERTAINTY_ASSIGNED_CONTEXT ( ( #65 ) ) GLOBAL_UNIT_ASSIGNED_CONTEXT ( ( #237, #147, #202 ) ) REPRESENTATION_CONTEXT ( 'NONE', 'WORKASPACE' ) );
#193 = ORIENTED_EDGE ( 'NONE', *, *, #164, .F. ) ;
#194 = DIRECTION ( 'NONE',  ( -0.000000000000000000, -0.000000000000000000, 1.000000000000000000 ) ) ;
#195 = DIRECTION ( 'NONE',  ( 1.000000000000000000, 0.000000000000000000, 0.000000000000000000 ) ) ;
#196 = VERTEX_POINT ( 'NONE', #138 ) ;
#197 = PLANE ( 'NONE',  #186 ) ;
#198 = CARTESIAN_POINT ( 'NONE',  ( 0.000000000000000000, 0.000000000000000000, 0.000000000000000000 ) ) ;
#199 = CARTESIAN_POINT ( 'NONE',  ( -4.799999999999999822, 6.000769315822029754E-16, 0.000000000000000000 ) ) ;
#200 = CARTESIAN_POINT ( 'NONE',  ( 0.000000000000000000, 0.000000000000000000, 0.1999999999999996503 ) ) ;
#201 = FILL_AREA_STYLE ('',( #123 ) ) ;
#202 =( NAMED_UNIT ( * ) SI_UNIT ( $, .STERADIAN. ) SOLID_ANGLE_UNIT ( ) );
#203 = EDGE_CURVE ( 'NONE', #114, #196, #120, .T. ) ;
#204 = SURFACE_SIDE_STYLE ('',( #236 ) ) ;
#205 =( NAMED_UNIT ( * ) PLANE_ANGLE_UNIT ( ) SI_UNIT ( $, .RADIAN. ) );
#206 = ORIENTED_EDGE ( 'NONE', *, *, #226, .F. ) ;
#207 = DIRECTION ( 'NONE',  ( 0.000000000000000000, 0.000000000000000000, -1.000000000000000000 ) ) ;
#208 = ORIENTED_EDGE ( 'NONE', *, *, #140, .F. ) ;
#209 = FACE_OUTER_BOUND ( 'NONE', #37, .T. ) ;
#210 = VERTEX_POINT ( 'NONE', #199 ) ;
#211 = VERTEX_POINT ( 'NONE', #100 ) ;
#212 = SURFACE_STYLE_USAGE ( .BOTH. , #55 ) ;
#213 = ORIENTED_EDGE ( 'NONE', *, *, #10, .T. ) ;
#214 = ADVANCED_FACE ( 'NONE', ( #102 ), #52, .T. ) ;
#215 = VERTEX_POINT ( 'NONE', #43 ) ;
#216 = DIRECTION ( 'NONE',  ( -0.000000000000000000, -0.000000000000000000, -1.000000000000000000 ) ) ;
#217 = CARTESIAN_POINT ( 'NONE',  ( 0.000000000000000000, 0.000000000000000000, 0.000000000000000000 ) ) ;
#218 = DIRECTION ( 'NONE',  ( -1.000000000000000000, 0.000000000000000000, 0.000000000000000000 ) ) ;
#219 = VECTOR ( 'NONE', #67, 1000.000000000000114 ) ;
#220 = APPLICATION_CONTEXT ( 'automotive_design' ) ;
#221 = MECHANICAL_DESIGN_GEOMETRIC_PRESENTATION_REPRESENTATION (  '', ( #119 ), #161 ) ;
#222 = EDGE_CURVE ( 'NONE', #215, #40, #82, .T. ) ;
#223 = CARTESIAN_POINT ( 'NONE',  ( 5.000000000000000000, 6.123233995736766282E-16, 0.1999999999999996503 ) ) ;
#224 = CARTESIAN_POINT ( 'NONE',  ( 0.000000000000000000, 0.000000000000000000, 1.000000000000000000 ) ) ;
#225 = CARTESIAN_POINT ( 'NONE',  ( 4.800000000000002487, 5.878304635907297169E-16, 1.000000000000000000 ) ) ;
#226 = EDGE_CURVE ( 'NONE', #137, #211, #12, .T. ) ;
#227 = EDGE_LOOP ( 'NONE', ( #155, #208, #53, #33 ) ) ;
#228 = DIRECTION ( 'NONE',  ( 0.7071067811865460184, 8.659560562354913137E-17, -0.7071067811865489050 ) ) ;
#229 = AXIS2_PLACEMENT_3D ( 'NONE', #200, #98, #6 ) ;
#230 = CARTESIAN_POINT ( 'NONE',  ( 5.000000000000000000, 0.000000000000000000, 0.1999999999999996503 ) ) ;
#231 = ORIENTED_EDGE ( 'NONE', *, *, #116, .T. ) ;
#232 = DIRECTION ( 'NONE',  ( 1.000000000000000000, 0.000000000000000000, 0.000000000000000000 ) ) ;
#233 = CARTESIAN_POINT ( 'NONE',  ( 5.000000000000000000, 6.123233995736766282E-16, 0.8000000000000012657 ) ) ;
#234 = UNCERTAINTY_MEASURE_WITH_UNIT (LENGTH_MEASURE( 1.000000000000000082E-05 ), #103, 'distance_accuracy_value', 'NONE');
#235 = DIRECTION ( 'NONE',  ( -0.000000000000000000, -0.000000000000000000, -1.000000000000000000 ) ) ;
#236 = SURFACE_STYLE_FILL_AREA ( #201 ) ;
#237 =( LENGTH_UNIT ( ) NAMED_UNIT ( * ) SI_UNIT ( .MILLI., .METRE. ) );
#238 = CIRCLE ( 'NONE', #229, 5.000000000000000000 ) ;
#239 = SHAPE_DEFINITION_REPRESENTATION ( #71, #131 ) ;
#240 = DIRECTION ( 'NONE',  ( -1.000000000000000000, 0.000000000000000000, 0.000000000000000000 ) ) ;
ENDSEC;
END-ISO-10303-21;
