ISO-10303-21;
HEADER;
FILE_DESCRIPTION (( 'STEP AP214' ),
    '1' );
FILE_NAME ('GNIF-200-3330-D10.STEP',
    '2024-07-19T14:39:08',
    ( '' ),
    ( '' ),
    'SwSTEP 2.0',
    'SolidWorks 2022',
    '' );
FILE_SCHEMA (( 'AUTOMOTIVE_DESIGN' ));
ENDSEC;

DATA;
#1 = CARTESIAN_POINT ( 'NONE',  ( 5.000000000000000000, 6.123233995736766282E-16, 1.000000000000000000 ) ) ;
#2 = DIRECTION ( 'NONE',  ( -1.000000000000000000, 0.000000000000000000, 0.000000000000000000 ) ) ;
#3 = PRODUCT_DEFINITION_FORMATION_WITH_SPECIFIED_SOURCE ( 'ÈÎºÎ', '', #214, .NOT_KNOWN. ) ;
#4 = CIRCLE ( 'NONE', #14, 5.000000000000000000 ) ;
#5 = AXIS2_PLACEMENT_3D ( 'NONE', #218, #84, #100 ) ;
#6 = CARTESIAN_POINT ( 'NONE',  ( 0.000000000000000000, 0.000000000000000000, 0.1999999999999996503 ) ) ;
#7 = EDGE_CURVE ( 'NONE', #69, #25, #193, .T. ) ;
#8 = CARTESIAN_POINT ( 'NONE',  ( 0.000000000000000000, 0.000000000000000000, 1.000000000000000000 ) ) ;
#9 = FACE_OUTER_BOUND ( 'NONE', #27, .T. ) ;
#10 = DIRECTION ( 'NONE',  ( -0.7071067811865490160, 8.659560562354950115E-17, 0.7071067811865459074 ) ) ;
#11 = ORIENTED_EDGE ( 'NONE', *, *, #199, .F. ) ;
#12 = LINE ( 'NONE', #1, #111 ) ;
#13 = CARTESIAN_POINT ( 'NONE',  ( 0.000000000000000000, 0.000000000000000000, 0.8000000000000012657 ) ) ;
#14 = AXIS2_PLACEMENT_3D ( 'NONE', #184, #195, #66 ) ;
#15 = DIRECTION ( 'NONE',  ( -0.7071067811865460184, 0.000000000000000000, -0.7071067811865489050 ) ) ;
#16 = EDGE_CURVE ( 'NONE', #25, #132, #143, .T. ) ;
#17 = AXIS2_PLACEMENT_3D ( 'NONE', #99, #188, #23 ) ;
#18 = DIRECTION ( 'NONE',  ( -0.000000000000000000, -0.000000000000000000, -1.000000000000000000 ) ) ;
#19 = LINE ( 'NONE', #144, #34 ) ;
#20 = EDGE_LOOP ( 'NONE', ( #113, #147, #173, #153 ) ) ;
#21 = APPLICATION_PROTOCOL_DEFINITION ( 'draft international standard', 'automotive_design', 1998, #163 ) ;
#22 = CIRCLE ( 'NONE', #220, 4.799999999999999822 ) ;
#23 = DIRECTION ( 'NONE',  ( 1.000000000000000000, 0.000000000000000000, 0.000000000000000000 ) ) ;
#24 = ADVANCED_FACE ( 'NONE', ( #29 ), #204, .T. ) ;
#25 = VERTEX_POINT ( 'NONE', #169 ) ;
#26 =( NAMED_UNIT ( * ) PLANE_ANGLE_UNIT ( ) SI_UNIT ( $, .RADIAN. ) );
#27 = EDGE_LOOP ( 'NONE', ( #130, #205, #159, #11 ) ) ;
#28 = COLOUR_RGB ( '',1.000000000000000000, 1.000000000000000000, 1.000000000000000000 ) ;
#29 = FACE_OUTER_BOUND ( 'NONE', #38, .T. ) ;
#30 = CARTESIAN_POINT ( 'NONE',  ( 0.000000000000000000, 0.000000000000000000, 0.000000000000000000 ) ) ;
#31 = FACE_OUTER_BOUND ( 'NONE', #240, .T. ) ;
#32 = EDGE_CURVE ( 'NONE', #132, #25, #137, .T. ) ;
#33 = DIRECTION ( 'NONE',  ( 0.000000000000000000, 0.000000000000000000, 1.000000000000000000 ) ) ;
#34 = VECTOR ( 'NONE', #86, 1000.000000000000114 ) ;
#35 = AXIS2_PLACEMENT_3D ( 'NONE', #117, #36, #2 ) ;
#36 = DIRECTION ( 'NONE',  ( 0.000000000000000000, 0.000000000000000000, -1.000000000000000000 ) ) ;
#37 = CARTESIAN_POINT ( 'NONE',  ( 0.000000000000000000, 0.000000000000000000, 1.000000000000000000 ) ) ;
#38 = EDGE_LOOP ( 'NONE', ( #92, #172, #191, #154 ) ) ;
#39 = CARTESIAN_POINT ( 'NONE',  ( 5.000000000000000000, 0.000000000000000000, 0.1999999999999996503 ) ) ;
#40 = FILL_AREA_STYLE_COLOUR ( '', #28 ) ;
#41 = ORIENTED_EDGE ( 'NONE', *, *, #199, .T. ) ;
#42 = VECTOR ( 'NONE', #109, 1000.000000000000000 ) ;
#43 =( NAMED_UNIT ( * ) PLANE_ANGLE_UNIT ( ) SI_UNIT ( $, .RADIAN. ) );
#44 = ORIENTED_EDGE ( 'NONE', *, *, #115, .T. ) ;
#45 = DIRECTION ( 'NONE',  ( -0.000000000000000000, -0.000000000000000000, -1.000000000000000000 ) ) ;
#46 = CARTESIAN_POINT ( 'NONE',  ( 0.000000000000000000, 0.000000000000000000, 1.000000000000000000 ) ) ;
#47 = EDGE_CURVE ( 'NONE', #83, #132, #57, .T. ) ;
#48 = DIRECTION ( 'NONE',  ( 1.000000000000000000, 0.000000000000000000, 0.000000000000000000 ) ) ;
#49 = DIRECTION ( 'NONE',  ( 1.000000000000000000, 0.000000000000000000, 0.000000000000000000 ) ) ;
#50 = PRESENTATION_LAYER_ASSIGNMENT (  '', '', ( #151 ) ) ;
#51 = CIRCLE ( 'NONE', #232, 5.000000000000000000 ) ;
#52 = LINE ( 'NONE', #156, #42 ) ;
#53 = ORIENTED_EDGE ( 'NONE', *, *, #32, .T. ) ;
#54 = ADVANCED_FACE ( 'NONE', ( #9 ), #97, .T. ) ;
#55 = SURFACE_STYLE_USAGE ( .BOTH. , #145 ) ;
#56 = VECTOR ( 'NONE', #149, 1000.000000000000000 ) ;
#57 = LINE ( 'NONE', #59, #67 ) ;
#58 = SURFACE_SIDE_STYLE ('',( #76 ) ) ;
#59 = CARTESIAN_POINT ( 'NONE',  ( -5.000000000000000000, 6.123233995736765296E-16, 0.1999999999999996503 ) ) ;
#60 = ORIENTED_EDGE ( 'NONE', *, *, #185, .T. ) ;
#61 = APPLICATION_CONTEXT ( 'automotive_design' ) ;
#62 = ORIENTED_EDGE ( 'NONE', *, *, #164, .T. ) ;
#63 = MANIFOLD_SOLID_BREP ( 'µ¹½Ç1', #239 ) ;
#64 = CARTESIAN_POINT ( 'NONE',  ( 0.000000000000000000, 0.000000000000000000, 0.1999999999999996503 ) ) ;
#65 = DIRECTION ( 'NONE',  ( -0.000000000000000000, -0.000000000000000000, -1.000000000000000000 ) ) ;
#66 = DIRECTION ( 'NONE',  ( 1.000000000000000000, 0.000000000000000000, 0.000000000000000000 ) ) ;
#67 = VECTOR ( 'NONE', #10, 1000.000000000000000 ) ;
#68 = DIRECTION ( 'NONE',  ( 1.000000000000000000, 0.000000000000000000, 0.000000000000000000 ) ) ;
#69 = VERTEX_POINT ( 'NONE', #162 ) ;
#70 = ADVANCED_FACE ( 'NONE', ( #198 ), #104, .T. ) ;
#71 = AXIS2_PLACEMENT_3D ( 'NONE', #64, #139, #49 ) ;
#72 = ADVANCED_FACE ( 'NONE', ( #160 ), #237, .F. ) ;
#73 = DIRECTION ( 'NONE',  ( -1.000000000000000000, 0.000000000000000000, 0.000000000000000000 ) ) ;
#74 = DIRECTION ( 'NONE',  ( -0.000000000000000000, -0.000000000000000000, 1.000000000000000000 ) ) ;
#75 = FILL_AREA_STYLE_COLOUR ( '', #165 ) ;
#76 = SURFACE_STYLE_FILL_AREA ( #189 ) ;
#77 =( LENGTH_UNIT ( ) NAMED_UNIT ( * ) SI_UNIT ( .MILLI., .METRE. ) );
#78 = VERTEX_POINT ( 'NONE', #123 ) ;
#79 = CARTESIAN_POINT ( 'NONE',  ( -5.000000000000000000, 0.000000000000000000, 0.1999999999999996503 ) ) ;
#80 = DIRECTION ( 'NONE',  ( -1.000000000000000000, 0.000000000000000000, 0.000000000000000000 ) ) ;
#81 = FACE_OUTER_BOUND ( 'NONE', #175, .T. ) ;
#82 = UNCERTAINTY_MEASURE_WITH_UNIT (LENGTH_MEASURE( 1.000000000000000082E-05 ), #190, 'distance_accuracy_value', 'NONE');
#83 = VERTEX_POINT ( 'NONE', #176 ) ;
#84 = DIRECTION ( 'NONE',  ( 0.000000000000000000, 0.000000000000000000, 1.000000000000000000 ) ) ;
#85 = EDGE_CURVE ( 'NONE', #78, #110, #116, .T. ) ;
#86 = DIRECTION ( 'NONE',  ( 0.7071067811865460184, 8.659560562354913137E-17, -0.7071067811865489050 ) ) ;
#87 = VERTEX_POINT ( 'NONE', #155 ) ;
#88 = AXIS2_PLACEMENT_3D ( 'NONE', #171, #90, #203 ) ;
#89 = AXIS2_PLACEMENT_3D ( 'NONE', #219, #124, #73 ) ;
#90 = DIRECTION ( 'NONE',  ( 0.000000000000000000, 0.000000000000000000, 1.000000000000000000 ) ) ;
#91 = EDGE_LOOP ( 'NONE', ( #94, #44 ) ) ;
#92 = ORIENTED_EDGE ( 'NONE', *, *, #47, .F. ) ;
#93 =( NAMED_UNIT ( * ) SI_UNIT ( $, .STERADIAN. ) SOLID_ANGLE_UNIT ( ) );
#94 = ORIENTED_EDGE ( 'NONE', *, *, #106, .T. ) ;
#95 = EDGE_CURVE ( 'NONE', #127, #25, #12, .T. ) ;
#96 = DIRECTION ( 'NONE',  ( 0.000000000000000000, 0.000000000000000000, -1.000000000000000000 ) ) ;
#97 = CONICAL_SURFACE ( 'NONE', #129, 4.800000000000002487, 0.7853981633974461696 ) ;
#98 =( NAMED_UNIT ( * ) SI_UNIT ( $, .STERADIAN. ) SOLID_ANGLE_UNIT ( ) );
#99 = CARTESIAN_POINT ( 'NONE',  ( 0.000000000000000000, 0.000000000000000000, 0.1999999999999996503 ) ) ;
#100 = DIRECTION ( 'NONE',  ( 1.000000000000000000, 0.000000000000000000, -0.000000000000000000 ) ) ;
#101 = CARTESIAN_POINT ( 'NONE',  ( 0.000000000000000000, 0.000000000000000000, 1.000000000000000000 ) ) ;
#102 = LINE ( 'NONE', #178, #166 ) ;
#103 = AXIS2_PLACEMENT_3D ( 'NONE', #183, #217, #122 ) ;
#104 = CONICAL_SURFACE ( 'NONE', #35, 4.800000000000002487, 0.7853981633974461696 ) ;
#105 = ORIENTED_EDGE ( 'NONE', *, *, #185, .F. ) ;
#106 = EDGE_CURVE ( 'NONE', #69, #83, #152, .T. ) ;
#107 = CARTESIAN_POINT ( 'NONE',  ( 5.000000000000000000, 6.123233995736766282E-16, 0.8000000000000012657 ) ) ;
#108 = ORIENTED_EDGE ( 'NONE', *, *, #221, .T. ) ;
#109 = DIRECTION ( 'NONE',  ( -0.000000000000000000, -0.000000000000000000, -1.000000000000000000 ) ) ;
#110 = VERTEX_POINT ( 'NONE', #194 ) ;
#111 = VECTOR ( 'NONE', #45, 1000.000000000000000 ) ;
#112 =( NAMED_UNIT ( * ) PLANE_ANGLE_UNIT ( ) SI_UNIT ( $, .RADIAN. ) );
#113 = ORIENTED_EDGE ( 'NONE', *, *, #115, .F. ) ;
#114 = DIRECTION ( 'NONE',  ( 1.000000000000000000, 0.000000000000000000, 0.000000000000000000 ) ) ;
#115 = EDGE_CURVE ( 'NONE', #83, #69, #22, .T. ) ;
#116 = CIRCLE ( 'NONE', #186, 4.800000000000002487 ) ;
#117 = CARTESIAN_POINT ( 'NONE',  ( 0.000000000000000000, 0.000000000000000000, 1.000000000000000000 ) ) ;
#118 = MECHANICAL_DESIGN_GEOMETRIC_PRESENTATION_REPRESENTATION (  '', ( #158 ), #182 ) ;
#119 = ORIENTED_EDGE ( 'NONE', *, *, #131, .T. ) ;
#120 = CARTESIAN_POINT ( 'NONE',  ( 0.000000000000000000, 0.000000000000000000, 0.000000000000000000 ) ) ;
#121 = UNCERTAINTY_MEASURE_WITH_UNIT (LENGTH_MEASURE( 1.000000000000000082E-05 ), #228, 'distance_accuracy_value', 'NONE');
#122 = DIRECTION ( 'NONE',  ( 1.000000000000000000, 0.000000000000000000, 0.000000000000000000 ) ) ;
#123 = CARTESIAN_POINT ( 'NONE',  ( -4.800000000000002487, 0.000000000000000000, 1.000000000000000000 ) ) ;
#124 = DIRECTION ( 'NONE',  ( -0.000000000000000000, -0.000000000000000000, -1.000000000000000000 ) ) ;
#125 = AXIS2_PLACEMENT_3D ( 'NONE', #120, #142, #222 ) ;
#126 = FACE_OUTER_BOUND ( 'NONE', #227, .T. ) ;
#127 = VERTEX_POINT ( 'NONE', #107 ) ;
#128 = PRESENTATION_STYLE_ASSIGNMENT (( #55 ) ) ;
#129 = AXIS2_PLACEMENT_3D ( 'NONE', #8, #96, #230 ) ;
#130 = ORIENTED_EDGE ( 'NONE', *, *, #221, .F. ) ;
#131 = EDGE_CURVE ( 'NONE', #87, #127, #51, .T. ) ;
#132 = VERTEX_POINT ( 'NONE', #79 ) ;
#133 =( GEOMETRIC_REPRESENTATION_CONTEXT ( 3 ) GLOBAL_UNCERTAINTY_ASSIGNED_CONTEXT ( ( #121 ) ) GLOBAL_UNIT_ASSIGNED_CONTEXT ( ( #228, #26, #93 ) ) REPRESENTATION_CONTEXT ( 'NONE', 'WORKASPACE' ) );
#134 = AXIS2_PLACEMENT_3D ( 'NONE', #101, #33, #196 ) ;
#135 = EDGE_LOOP ( 'NONE', ( #105, #108, #168, #213 ) ) ;
#136 = PRODUCT_DEFINITION_SHAPE ( 'NONE', 'NONE',  #202 ) ;
#137 = CIRCLE ( 'NONE', #174, 5.000000000000000000 ) ;
#138 = DIRECTION ( 'NONE',  ( 0.000000000000000000, 0.000000000000000000, 1.000000000000000000 ) ) ;
#139 = DIRECTION ( 'NONE',  ( -0.000000000000000000, -0.000000000000000000, 1.000000000000000000 ) ) ;
#140 = PLANE ( 'NONE',  #134 ) ;
#141 = ADVANCED_FACE ( 'NONE', ( #126 ), #200, .T. ) ;
#142 = DIRECTION ( 'NONE',  ( -0.000000000000000000, -0.000000000000000000, -1.000000000000000000 ) ) ;
#143 = CIRCLE ( 'NONE', #192, 5.000000000000000000 ) ;
#144 = CARTESIAN_POINT ( 'NONE',  ( 4.800000000000002487, 5.878304635907297169E-16, 1.000000000000000000 ) ) ;
#145 = SURFACE_SIDE_STYLE ('',( #225 ) ) ;
#146 =( NAMED_UNIT ( * ) SI_UNIT ( $, .STERADIAN. ) SOLID_ANGLE_UNIT ( ) );
#147 = ORIENTED_EDGE ( 'NONE', *, *, #47, .T. ) ;
#148 = FILL_AREA_STYLE ('',( #75 ) ) ;
#149 = DIRECTION ( 'NONE',  ( 0.7071067811865490160, 0.000000000000000000, 0.7071067811865459074 ) ) ;
#150 = ORIENTED_EDGE ( 'NONE', *, *, #164, .F. ) ;
#151 = STYLED_ITEM ( 'NONE', ( #128 ), #170 ) ;
#152 = CIRCLE ( 'NONE', #125, 4.799999999999999822 ) ;
#153 = ORIENTED_EDGE ( 'NONE', *, *, #7, .F. ) ;
#154 = ORIENTED_EDGE ( 'NONE', *, *, #32, .F. ) ;
#155 = CARTESIAN_POINT ( 'NONE',  ( -5.000000000000000000, 0.000000000000000000, 0.8000000000000012657 ) ) ;
#156 = CARTESIAN_POINT ( 'NONE',  ( -5.000000000000000000, 0.000000000000000000, 1.000000000000000000 ) ) ;
#157 = DIRECTION ( 'NONE',  ( 0.000000000000000000, 0.000000000000000000, -1.000000000000000000 ) ) ;
#158 = STYLED_ITEM ( 'NONE', ( #212 ), #63 ) ;
#159 = ORIENTED_EDGE ( 'NONE', *, *, #223, .T. ) ;
#160 = FACE_OUTER_BOUND ( 'NONE', #91, .T. ) ;
#161 = ORIENTED_EDGE ( 'NONE', *, *, #85, .T. ) ;
#162 = CARTESIAN_POINT ( 'NONE',  ( 4.799999999999999822, 0.000000000000000000, 0.000000000000000000 ) ) ;
#163 = APPLICATION_CONTEXT ( 'automotive_design' ) ;
#164 = EDGE_CURVE ( 'NONE', #87, #132, #52, .T. ) ;
#165 = COLOUR_RGB ( '',1.000000000000000000, 1.000000000000000000, 1.000000000000000000 ) ;
#166 = VECTOR ( 'NONE', #15, 1000.000000000000114 ) ;
#167 = APPLICATION_PROTOCOL_DEFINITION ( 'draft international standard', 'automotive_design', 1998, #61 ) ;
#168 = ORIENTED_EDGE ( 'NONE', *, *, #131, .F. ) ;
#169 = CARTESIAN_POINT ( 'NONE',  ( 5.000000000000000000, 6.123233995736766282E-16, 0.1999999999999996503 ) ) ;
#170 = ADVANCED_BREP_SHAPE_REPRESENTATION ( 'GNIF-200-3330-D10', ( #63, #88 ), #197 ) ;
#171 = CARTESIAN_POINT ( 'NONE',  ( 0.000000000000000000, 0.000000000000000000, 0.000000000000000000 ) ) ;
#172 = ORIENTED_EDGE ( 'NONE', *, *, #106, .F. ) ;
#173 = ORIENTED_EDGE ( 'NONE', *, *, #16, .F. ) ;
#174 = AXIS2_PLACEMENT_3D ( 'NONE', #6, #74, #207 ) ;
#175 = EDGE_LOOP ( 'NONE', ( #229, #41, #62, #53 ) ) ;
#176 = CARTESIAN_POINT ( 'NONE',  ( -4.799999999999999822, 6.000769315822029754E-16, 0.000000000000000000 ) ) ;
#177 = ADVANCED_FACE ( 'NONE', ( #236 ), #181, .T. ) ;
#178 = CARTESIAN_POINT ( 'NONE',  ( -4.800000000000002487, 0.000000000000000000, 1.000000000000000000 ) ) ;
#179 = PRODUCT_RELATED_PRODUCT_CATEGORY ( 'part', '', ( #214 ) ) ;
#180 = MECHANICAL_DESIGN_GEOMETRIC_PRESENTATION_REPRESENTATION (  '', ( #151 ), #133 ) ;
#181 = CONICAL_SURFACE ( 'NONE', #71, 5.000000000000000000, 0.7853981633974503884 ) ;
#182 =( GEOMETRIC_REPRESENTATION_CONTEXT ( 3 ) GLOBAL_UNCERTAINTY_ASSIGNED_CONTEXT ( ( #216 ) ) GLOBAL_UNIT_ASSIGNED_CONTEXT ( ( #77, #43, #98 ) ) REPRESENTATION_CONTEXT ( 'NONE', 'WORKASPACE' ) );
#183 = CARTESIAN_POINT ( 'NONE',  ( 0.000000000000000000, 0.000000000000000000, 1.000000000000000000 ) ) ;
#184 = CARTESIAN_POINT ( 'NONE',  ( 0.000000000000000000, 0.000000000000000000, 0.8000000000000012657 ) ) ;
#185 = EDGE_CURVE ( 'NONE', #110, #78, #210, .T. ) ;
#186 = AXIS2_PLACEMENT_3D ( 'NONE', #37, #138, #215 ) ;
#187 = PRODUCT_CONTEXT ( 'NONE', #163, 'mechanical' ) ;
#188 = DIRECTION ( 'NONE',  ( -0.000000000000000000, -0.000000000000000000, 1.000000000000000000 ) ) ;
#189 = FILL_AREA_STYLE ('',( #40 ) ) ;
#190 =( LENGTH_UNIT ( ) NAMED_UNIT ( * ) SI_UNIT ( .MILLI., .METRE. ) );
#191 = ORIENTED_EDGE ( 'NONE', *, *, #7, .T. ) ;
#192 = AXIS2_PLACEMENT_3D ( 'NONE', #233, #206, #114 ) ;
#193 = LINE ( 'NONE', #39, #56 ) ;
#194 = CARTESIAN_POINT ( 'NONE',  ( 4.800000000000002487, 6.000769315822031726E-16, 1.000000000000000000 ) ) ;
#195 = DIRECTION ( 'NONE',  ( 0.000000000000000000, 0.000000000000000000, -1.000000000000000000 ) ) ;
#196 = DIRECTION ( 'NONE',  ( 1.000000000000000000, 0.000000000000000000, -0.000000000000000000 ) ) ;
#197 =( GEOMETRIC_REPRESENTATION_CONTEXT ( 3 ) GLOBAL_UNCERTAINTY_ASSIGNED_CONTEXT ( ( #82 ) ) GLOBAL_UNIT_ASSIGNED_CONTEXT ( ( #190, #112, #146 ) ) REPRESENTATION_CONTEXT ( 'NONE', 'WORKASPACE' ) );
#198 = FACE_OUTER_BOUND ( 'NONE', #135, .T. ) ;
#199 = EDGE_CURVE ( 'NONE', #127, #87, #4, .T. ) ;
#200 = CYLINDRICAL_SURFACE ( 'NONE', #224, 5.000000000000000000 ) ;
#201 = ORIENTED_EDGE ( 'NONE', *, *, #16, .T. ) ;
#202 = PRODUCT_DEFINITION ( 'Î´Öª', '', #3, #234 ) ;
#203 = DIRECTION ( 'NONE',  ( 1.000000000000000000, 0.000000000000000000, 0.000000000000000000 ) ) ;
#205 = ORIENTED_EDGE ( 'NONE', *, *, #85, .F. ) ;
#204 = CONICAL_SURFACE ( 'NONE', #17, 5.000000000000000000, 0.7853981633974503884 ) ;
#206 = DIRECTION ( 'NONE',  ( -0.000000000000000000, -0.000000000000000000, 1.000000000000000000 ) ) ;
#207 = DIRECTION ( 'NONE',  ( 1.000000000000000000, 0.000000000000000000, 0.000000000000000000 ) ) ;
#208 = SHAPE_DEFINITION_REPRESENTATION ( #136, #170 ) ;
#209 = SURFACE_STYLE_USAGE ( .BOTH. , #58 ) ;
#210 = CIRCLE ( 'NONE', #103, 4.800000000000002487 ) ;
#211 = ADVANCED_FACE ( 'NONE', ( #31 ), #140, .T. ) ;
#212 = PRESENTATION_STYLE_ASSIGNMENT (( #209 ) ) ;
#213 = ORIENTED_EDGE ( 'NONE', *, *, #223, .F. ) ;
#214 = PRODUCT ( 'GNIF-200-3330-D10', 'GNIF-200-3330-D10', '', ( #187 ) ) ;
#215 = DIRECTION ( 'NONE',  ( 1.000000000000000000, 0.000000000000000000, 0.000000000000000000 ) ) ;
#216 = UNCERTAINTY_MEASURE_WITH_UNIT (LENGTH_MEASURE( 1.000000000000000082E-05 ), #77, 'distance_accuracy_value', 'NONE');
#217 = DIRECTION ( 'NONE',  ( 0.000000000000000000, 0.000000000000000000, 1.000000000000000000 ) ) ;
#218 = CARTESIAN_POINT ( 'NONE',  ( 0.000000000000000000, 0.000000000000000000, 0.000000000000000000 ) ) ;
#219 = CARTESIAN_POINT ( 'NONE',  ( 0.000000000000000000, 0.000000000000000000, 1.000000000000000000 ) ) ;
#220 = AXIS2_PLACEMENT_3D ( 'NONE', #30, #65, #48 ) ;
#221 = EDGE_CURVE ( 'NONE', #110, #127, #19, .T. ) ;
#222 = DIRECTION ( 'NONE',  ( 1.000000000000000000, 0.000000000000000000, 0.000000000000000000 ) ) ;
#223 = EDGE_CURVE ( 'NONE', #78, #87, #102, .T. ) ;
#224 = AXIS2_PLACEMENT_3D ( 'NONE', #46, #18, #80 ) ;
#225 = SURFACE_STYLE_FILL_AREA ( #148 ) ;
#226 = PRESENTATION_LAYER_ASSIGNMENT (  '', '', ( #158 ) ) ;
#227 = EDGE_LOOP ( 'NONE', ( #119, #235, #201, #150 ) ) ;
#228 =( LENGTH_UNIT ( ) NAMED_UNIT ( * ) SI_UNIT ( .MILLI., .METRE. ) );
#229 = ORIENTED_EDGE ( 'NONE', *, *, #95, .F. ) ;
#230 = DIRECTION ( 'NONE',  ( -1.000000000000000000, 0.000000000000000000, 0.000000000000000000 ) ) ;
#231 = ADVANCED_FACE ( 'NONE', ( #81 ), #238, .T. ) ;
#232 = AXIS2_PLACEMENT_3D ( 'NONE', #13, #157, #68 ) ;
#233 = CARTESIAN_POINT ( 'NONE',  ( 0.000000000000000000, 0.000000000000000000, 0.1999999999999996503 ) ) ;
#234 = PRODUCT_DEFINITION_CONTEXT ( 'detailed design', #61, 'design' ) ;
#235 = ORIENTED_EDGE ( 'NONE', *, *, #95, .T. ) ;
#236 = FACE_OUTER_BOUND ( 'NONE', #20, .T. ) ;
#237 = PLANE ( 'NONE',  #5 ) ;
#238 = CYLINDRICAL_SURFACE ( 'NONE', #89, 5.000000000000000000 ) ;
#239 = CLOSED_SHELL ( 'NONE', ( #177, #70, #141, #231, #211, #72, #54, #24 ) ) ;
#240 = EDGE_LOOP ( 'NONE', ( #161, #60 ) ) ;
ENDSEC;
END-ISO-10303-21;
