ISO-10303-21;
HEADER;
FILE_DESCRIPTION (( 'STEP AP214' ),
    '1' );
FILE_NAME ('GNIF-200-3330-D25.STEP',
    '2024-07-19T14:31:42',
    ( '' ),
    ( '' ),
    'SwSTEP 2.0',
    'SolidWorks 2022',
    '' );
FILE_SCHEMA (( 'AUTOMOTIVE_DESIGN' ));
ENDSEC;

DATA;
#1 = CARTESIAN_POINT ( 'NONE',  ( 0.000000000000000000, 0.000000000000000000, 1.000000000000000000 ) ) ;
#2 = PRODUCT_DEFINITION_FORMATION_WITH_SPECIFIED_SOURCE ( 'ÈÎºÎ', '', #147, .NOT_KNOWN. ) ;
#3 = DIRECTION ( 'NONE',  ( 0.000000000000000000, 0.000000000000000000, 1.000000000000000000 ) ) ;
#4 = DIRECTION ( 'NONE',  ( -0.000000000000000000, -0.000000000000000000, -1.000000000000000000 ) ) ;
#5 =( NAMED_UNIT ( * ) SI_UNIT ( $, .STERADIAN. ) SOLID_ANGLE_UNIT ( ) );
#6 = ORIENTED_EDGE ( 'NONE', *, *, #103, .T. ) ;
#7 = ORIENTED_EDGE ( 'NONE', *, *, #22, .T. ) ;
#8 = AXIS2_PLACEMENT_3D ( 'NONE', #28, #12, #237 ) ;
#9 = VECTOR ( 'NONE', #210, 1000.000000000000000 ) ;
#10 = CARTESIAN_POINT ( 'NONE',  ( 0.000000000000000000, 0.000000000000000000, 0.000000000000000000 ) ) ;
#11 = ORIENTED_EDGE ( 'NONE', *, *, #22, .F. ) ;
#12 = DIRECTION ( 'NONE',  ( -0.000000000000000000, -0.000000000000000000, -1.000000000000000000 ) ) ;
#13 = PLANE ( 'NONE',  #202 ) ;
#14 = CARTESIAN_POINT ( 'NONE',  ( 0.000000000000000000, 0.000000000000000000, 1.000000000000000000 ) ) ;
#15 = DIRECTION ( 'NONE',  ( -1.000000000000000000, 0.000000000000000000, 0.000000000000000000 ) ) ;
#16 = DIRECTION ( 'NONE',  ( 0.000000000000000000, 0.000000000000000000, -1.000000000000000000 ) ) ;
#17 = AXIS2_PLACEMENT_3D ( 'NONE', #1, #3, #66 ) ;
#18 = FACE_OUTER_BOUND ( 'NONE', #101, .T. ) ;
#19 = CYLINDRICAL_SURFACE ( 'NONE', #162, 12.50000000000000000 ) ;
#20 = CIRCLE ( 'NONE', #57, 12.50000000000000000 ) ;
#21 = PRODUCT_DEFINITION_SHAPE ( 'NONE', 'NONE',  #140 ) ;
#22 = EDGE_CURVE ( 'NONE', #215, #190, #154, .T. ) ;
#23 = PRESENTATION_LAYER_ASSIGNMENT (  '', '', ( #124 ) ) ;
#24 =( GEOMETRIC_REPRESENTATION_CONTEXT ( 3 ) GLOBAL_UNCERTAINTY_ASSIGNED_CONTEXT ( ( #113 ) ) GLOBAL_UNIT_ASSIGNED_CONTEXT ( ( #55, #54, #105 ) ) REPRESENTATION_CONTEXT ( 'NONE', 'WORKASPACE' ) );
#25 = CARTESIAN_POINT ( 'NONE',  ( 0.000000000000000000, 0.000000000000000000, 1.000000000000000000 ) ) ;
#26 =( LENGTH_UNIT ( ) NAMED_UNIT ( * ) SI_UNIT ( .MILLI., .METRE. ) );
#27 = EDGE_LOOP ( 'NONE', ( #72, #238, #59, #170 ) ) ;
#28 = CARTESIAN_POINT ( 'NONE',  ( 0.000000000000000000, 0.000000000000000000, 0.000000000000000000 ) ) ;
#29 = CIRCLE ( 'NONE', #17, 12.29999999999999893 ) ;
#30 = ORIENTED_EDGE ( 'NONE', *, *, #169, .T. ) ;
#31 = VERTEX_POINT ( 'NONE', #62 ) ;
#32 = LINE ( 'NONE', #141, #76 ) ;
#33 = CARTESIAN_POINT ( 'NONE',  ( 0.000000000000000000, 0.000000000000000000, 0.1999999999999987899 ) ) ;
#34 = ADVANCED_FACE ( 'NONE', ( #96 ), #186, .T. ) ;
#35 = CLOSED_SHELL ( 'NONE', ( #191, #45, #213, #217, #120, #166, #235, #34 ) ) ;
#36 = AXIS2_PLACEMENT_3D ( 'NONE', #188, #16, #225 ) ;
#37 = EDGE_CURVE ( 'NONE', #128, #114, #165, .T. ) ;
#38 = DIRECTION ( 'NONE',  ( 1.000000000000000000, 0.000000000000000000, 0.000000000000000000 ) ) ;
#39 = LINE ( 'NONE', #127, #9 ) ;
#40 = EDGE_LOOP ( 'NONE', ( #160, #230 ) ) ;
#41 = CARTESIAN_POINT ( 'NONE',  ( 0.000000000000000000, 0.000000000000000000, 0.1999999999999987899 ) ) ;
#42 = CARTESIAN_POINT ( 'NONE',  ( -12.50000000000000000, 0.000000000000000000, 0.8000000000000029310 ) ) ;
#43 = FACE_OUTER_BOUND ( 'NONE', #203, .T. ) ;
#44 = ORIENTED_EDGE ( 'NONE', *, *, #111, .F. ) ;
#45 = ADVANCED_FACE ( 'NONE', ( #100 ), #201, .T. ) ;
#46 = VECTOR ( 'NONE', #181, 1000.000000000000114 ) ;
#47 = CIRCLE ( 'NONE', #36, 12.50000000000000000 ) ;
#48 = CARTESIAN_POINT ( 'NONE',  ( 0.000000000000000000, 0.000000000000000000, 0.1999999999999987899 ) ) ;
#49 = SURFACE_STYLE_FILL_AREA ( #67 ) ;
#50 = CARTESIAN_POINT ( 'NONE',  ( 12.50000000000000000, 1.530808498934191521E-15, 0.8000000000000029310 ) ) ;
#51 =( GEOMETRIC_REPRESENTATION_CONTEXT ( 3 ) GLOBAL_UNCERTAINTY_ASSIGNED_CONTEXT ( ( #86 ) ) GLOBAL_UNIT_ASSIGNED_CONTEXT ( ( #90, #77, #155 ) ) REPRESENTATION_CONTEXT ( 'NONE', 'WORKASPACE' ) );
#52 = FACE_OUTER_BOUND ( 'NONE', #178, .T. ) ;
#53 = COLOUR_RGB ( '',1.000000000000000000, 1.000000000000000000, 1.000000000000000000 ) ;
#54 =( NAMED_UNIT ( * ) PLANE_ANGLE_UNIT ( ) SI_UNIT ( $, .RADIAN. ) );
#55 =( LENGTH_UNIT ( ) NAMED_UNIT ( * ) SI_UNIT ( .MILLI., .METRE. ) );
#56 = EDGE_CURVE ( 'NONE', #74, #190, #109, .T. ) ;
#57 = AXIS2_PLACEMENT_3D ( 'NONE', #156, #219, #216 ) ;
#58 = CIRCLE ( 'NONE', #139, 12.29999999999999893 ) ;
#59 = ORIENTED_EDGE ( 'NONE', *, *, #180, .T. ) ;
#60 = CARTESIAN_POINT ( 'NONE',  ( 12.29999999999999893, 1.506315562951244216E-15, 1.000000000000000000 ) ) ;
#61 = CARTESIAN_POINT ( 'NONE',  ( 0.000000000000000000, 0.000000000000000000, 1.000000000000000000 ) ) ;
#62 = CARTESIAN_POINT ( 'NONE',  ( 12.50000000000000000, 1.530808498934191521E-15, 0.1999999999999987899 ) ) ;
#63 = EDGE_LOOP ( 'NONE', ( #11, #182, #212, #106 ) ) ;
#64 = CARTESIAN_POINT ( 'NONE',  ( 0.000000000000000000, 0.000000000000000000, 0.8000000000000029310 ) ) ;
#65 = CARTESIAN_POINT ( 'NONE',  ( -12.50000000000000000, 0.000000000000000000, 1.000000000000000000 ) ) ;
#66 = DIRECTION ( 'NONE',  ( 1.000000000000000000, 0.000000000000000000, 0.000000000000000000 ) ) ;
#67 = FILL_AREA_STYLE ('',( #126 ) ) ;
#68 = CARTESIAN_POINT ( 'NONE',  ( 12.50000000000000000, 0.000000000000000000, 0.1999999999999987899 ) ) ;
#69 = AXIS2_PLACEMENT_3D ( 'NONE', #10, #196, #200 ) ;
#70 = AXIS2_PLACEMENT_3D ( 'NONE', #48, #197, #117 ) ;
#71 = FACE_OUTER_BOUND ( 'NONE', #27, .T. ) ;
#72 = ORIENTED_EDGE ( 'NONE', *, *, #149, .F. ) ;
#73 = PRESENTATION_STYLE_ASSIGNMENT (( #93 ) ) ;
#74 = VERTEX_POINT ( 'NONE', #42 ) ;
#75 = AXIS2_PLACEMENT_3D ( 'NONE', #61, #136, #134 ) ;
#76 = VECTOR ( 'NONE', #185, 1000.000000000000000 ) ;
#77 =( NAMED_UNIT ( * ) PLANE_ANGLE_UNIT ( ) SI_UNIT ( $, .RADIAN. ) );
#78 = ORIENTED_EDGE ( 'NONE', *, *, #149, .T. ) ;
#79 = CARTESIAN_POINT ( 'NONE',  ( -12.50000000000000000, 1.530808498934191521E-15, 0.1999999999999987899 ) ) ;
#80 = SURFACE_STYLE_FILL_AREA ( #110 ) ;
#81 = DIRECTION ( 'NONE',  ( 1.000000000000000000, 0.000000000000000000, -0.000000000000000000 ) ) ;
#82 = ORIENTED_EDGE ( 'NONE', *, *, #97, .T. ) ;
#83 = ORIENTED_EDGE ( 'NONE', *, *, #56, .T. ) ;
#84 = AXIS2_PLACEMENT_3D ( 'NONE', #121, #204, #15 ) ;
#85 = DIRECTION ( 'NONE',  ( -0.000000000000000000, -0.000000000000000000, 1.000000000000000000 ) ) ;
#86 = UNCERTAINTY_MEASURE_WITH_UNIT (LENGTH_MEASURE( 1.000000000000000082E-05 ), #90, 'distance_accuracy_value', 'NONE');
#87 = EDGE_LOOP ( 'NONE', ( #172, #153, #98, #44 ) ) ;
#88 = DIRECTION ( 'NONE',  ( 1.000000000000000000, 0.000000000000000000, 0.000000000000000000 ) ) ;
#89 =( GEOMETRIC_REPRESENTATION_CONTEXT ( 3 ) GLOBAL_UNCERTAINTY_ASSIGNED_CONTEXT ( ( #221 ) ) GLOBAL_UNIT_ASSIGNED_CONTEXT ( ( #26, #193, #5 ) ) REPRESENTATION_CONTEXT ( 'NONE', 'WORKASPACE' ) );
#90 =( LENGTH_UNIT ( ) NAMED_UNIT ( * ) SI_UNIT ( .MILLI., .METRE. ) );
#91 = ORIENTED_EDGE ( 'NONE', *, *, #199, .F. ) ;
#92 = COLOUR_RGB ( '',1.000000000000000000, 1.000000000000000000, 1.000000000000000000 ) ;
#93 = SURFACE_STYLE_USAGE ( .BOTH. , #173 ) ;
#94 = ORIENTED_EDGE ( 'NONE', *, *, #130, .F. ) ;
#95 = CARTESIAN_POINT ( 'NONE',  ( 0.000000000000000000, 0.000000000000000000, 0.000000000000000000 ) ) ;
#96 = FACE_OUTER_BOUND ( 'NONE', #87, .T. ) ;
#97 = EDGE_CURVE ( 'NONE', #31, #129, #20, .T. ) ;
#98 = ORIENTED_EDGE ( 'NONE', *, *, #199, .T. ) ;
#99 = MECHANICAL_DESIGN_GEOMETRIC_PRESENTATION_REPRESENTATION (  '', ( #133 ), #89 ) ;
#100 = FACE_OUTER_BOUND ( 'NONE', #131, .T. ) ;
#101 = EDGE_LOOP ( 'NONE', ( #83, #78, #82, #119 ) ) ;
#102 = CYLINDRICAL_SURFACE ( 'NONE', #104, 12.50000000000000000 ) ;
#103 = EDGE_CURVE ( 'NONE', #114, #129, #174, .T. ) ;
#104 = AXIS2_PLACEMENT_3D ( 'NONE', #167, #148, #208 ) ;
#105 =( NAMED_UNIT ( * ) SI_UNIT ( $, .STERADIAN. ) SOLID_ANGLE_UNIT ( ) );
#106 = ORIENTED_EDGE ( 'NONE', *, *, #187, .F. ) ;
#107 = ADVANCED_BREP_SHAPE_REPRESENTATION ( 'GNIF-200-3330-D25', ( #209, #233 ), #51 ) ;
#108 = FACE_OUTER_BOUND ( 'NONE', #63, .T. ) ;
#109 = CIRCLE ( 'NONE', #179, 12.50000000000000000 ) ;
#110 = FILL_AREA_STYLE ('',( #194 ) ) ;
#111 = EDGE_CURVE ( 'NONE', #129, #31, #207, .T. ) ;
#112 = ORIENTED_EDGE ( 'NONE', *, *, #145, .F. ) ;
#113 = UNCERTAINTY_MEASURE_WITH_UNIT (LENGTH_MEASURE( 1.000000000000000082E-05 ), #55, 'distance_accuracy_value', 'NONE');
#114 = VERTEX_POINT ( 'NONE', #176 ) ;
#115 = DIRECTION ( 'NONE',  ( 0.000000000000000000, 0.000000000000000000, 1.000000000000000000 ) ) ;
#116 = CARTESIAN_POINT ( 'NONE',  ( -12.50000000000000000, 0.000000000000000000, 0.1999999999999987899 ) ) ;
#117 = DIRECTION ( 'NONE',  ( 1.000000000000000000, 0.000000000000000000, 0.000000000000000000 ) ) ;
#118 = VECTOR ( 'NONE', #205, 1000.000000000000114 ) ;
#119 = ORIENTED_EDGE ( 'NONE', *, *, #180, .F. ) ;
#120 = ADVANCED_FACE ( 'NONE', ( #43 ), #13, .T. ) ;
#121 = CARTESIAN_POINT ( 'NONE',  ( 0.000000000000000000, 0.000000000000000000, 1.000000000000000000 ) ) ;
#122 = LINE ( 'NONE', #65, #152 ) ;
#123 = SURFACE_SIDE_STYLE ('',( #49 ) ) ;
#124 = STYLED_ITEM ( 'NONE', ( #143 ), #209 ) ;
#125 = MECHANICAL_DESIGN_GEOMETRIC_PRESENTATION_REPRESENTATION (  '', ( #124 ), #24 ) ;
#126 = FILL_AREA_STYLE_COLOUR ( '', #92 ) ;
#127 = CARTESIAN_POINT ( 'NONE',  ( -12.29999999999999893, 0.000000000000000000, 1.000000000000000000 ) ) ;
#128 = VERTEX_POINT ( 'NONE', #159 ) ;
#129 = VERTEX_POINT ( 'NONE', #116 ) ;
#130 = EDGE_CURVE ( 'NONE', #114, #128, #229, .T. ) ;
#131 = EDGE_LOOP ( 'NONE', ( #112, #7, #232, #168 ) ) ;
#132 = ORIENTED_EDGE ( 'NONE', *, *, #97, .F. ) ;
#133 = STYLED_ITEM ( 'NONE', ( #73 ), #107 ) ;
#134 = DIRECTION ( 'NONE',  ( -1.000000000000000000, 0.000000000000000000, 0.000000000000000000 ) ) ;
#135 = DIRECTION ( 'NONE',  ( -0.000000000000000000, -0.000000000000000000, 1.000000000000000000 ) ) ;
#136 = DIRECTION ( 'NONE',  ( 0.000000000000000000, 0.000000000000000000, -1.000000000000000000 ) ) ;
#137 = APPLICATION_CONTEXT ( 'automotive_design' ) ;
#138 = ORIENTED_EDGE ( 'NONE', *, *, #145, .T. ) ;
#139 = AXIS2_PLACEMENT_3D ( 'NONE', #220, #222, #88 ) ;
#140 = PRODUCT_DEFINITION ( 'Î´Öª', '', #2, #177 ) ;
#141 = CARTESIAN_POINT ( 'NONE',  ( 12.50000000000000000, 1.530808498934191521E-15, 1.000000000000000000 ) ) ;
#142 = DIRECTION ( 'NONE',  ( 0.000000000000000000, 0.000000000000000000, 1.000000000000000000 ) ) ;
#143 = PRESENTATION_STYLE_ASSIGNMENT (( #206 ) ) ;
#144 = PRODUCT_RELATED_PRODUCT_CATEGORY ( 'part', '', ( #147 ) ) ;
#145 = EDGE_CURVE ( 'NONE', #215, #236, #29, .T. ) ;
#146 = FACE_OUTER_BOUND ( 'NONE', #40, .T. ) ;
#147 = PRODUCT ( 'GNIF-200-3330-D25', 'GNIF-200-3330-D25', '', ( #150 ) ) ;
#148 = DIRECTION ( 'NONE',  ( -0.000000000000000000, -0.000000000000000000, -1.000000000000000000 ) ) ;
#149 = EDGE_CURVE ( 'NONE', #190, #31, #32, .T. ) ;
#150 = PRODUCT_CONTEXT ( 'NONE', #137, 'mechanical' ) ;
#151 = VECTOR ( 'NONE', #214, 1000.000000000000000 ) ;
#152 = VECTOR ( 'NONE', #239, 1000.000000000000000 ) ;
#153 = ORIENTED_EDGE ( 'NONE', *, *, #37, .F. ) ;
#154 = LINE ( 'NONE', #60, #151 ) ;
#155 =( NAMED_UNIT ( * ) SI_UNIT ( $, .STERADIAN. ) SOLID_ANGLE_UNIT ( ) );
#156 = CARTESIAN_POINT ( 'NONE',  ( 0.000000000000000000, 0.000000000000000000, 0.1999999999999987899 ) ) ;
#157 = APPLICATION_PROTOCOL_DEFINITION ( 'draft international standard', 'automotive_design', 1998, #226 ) ;
#158 = DIRECTION ( 'NONE',  ( 0.000000000000000000, 0.000000000000000000, -1.000000000000000000 ) ) ;
#159 = CARTESIAN_POINT ( 'NONE',  ( 12.30000000000000249, 0.000000000000000000, 0.000000000000000000 ) ) ;
#160 = ORIENTED_EDGE ( 'NONE', *, *, #37, .T. ) ;
#161 = AXIS2_PLACEMENT_3D ( 'NONE', #164, #142, #163 ) ;
#162 = AXIS2_PLACEMENT_3D ( 'NONE', #14, #4, #227 ) ;
#163 = DIRECTION ( 'NONE',  ( 1.000000000000000000, 0.000000000000000000, -0.000000000000000000 ) ) ;
#164 = CARTESIAN_POINT ( 'NONE',  ( 0.000000000000000000, 0.000000000000000000, 0.000000000000000000 ) ) ;
#165 = CIRCLE ( 'NONE', #69, 12.30000000000000249 ) ;
#166 = ADVANCED_FACE ( 'NONE', ( #146 ), #183, .F. ) ;
#167 = CARTESIAN_POINT ( 'NONE',  ( 0.000000000000000000, 0.000000000000000000, 1.000000000000000000 ) ) ;
#168 = ORIENTED_EDGE ( 'NONE', *, *, #224, .F. ) ;
#169 = EDGE_CURVE ( 'NONE', #236, #215, #58, .T. ) ;
#170 = ORIENTED_EDGE ( 'NONE', *, *, #111, .T. ) ;
#171 = SHAPE_DEFINITION_REPRESENTATION ( #21, #107 ) ;
#172 = ORIENTED_EDGE ( 'NONE', *, *, #103, .F. ) ;
#173 = SURFACE_SIDE_STYLE ('',( #80 ) ) ;
#174 = LINE ( 'NONE', #79, #46 ) ;
#175 = APPLICATION_PROTOCOL_DEFINITION ( 'draft international standard', 'automotive_design', 1998, #137 ) ;
#176 = CARTESIAN_POINT ( 'NONE',  ( -12.30000000000000249, 1.518562030942718164E-15, 0.000000000000000000 ) ) ;
#177 = PRODUCT_DEFINITION_CONTEXT ( 'detailed design', #226, 'design' ) ;
#178 = EDGE_LOOP ( 'NONE', ( #94, #6, #132, #91 ) ) ;
#179 = AXIS2_PLACEMENT_3D ( 'NONE', #64, #158, #218 ) ;
#180 = EDGE_CURVE ( 'NONE', #74, #129, #122, .T. ) ;
#181 = DIRECTION ( 'NONE',  ( -0.7071067811865474617, 8.659560562354932858E-17, 0.7071067811865474617 ) ) ;
#182 = ORIENTED_EDGE ( 'NONE', *, *, #169, .F. ) ;
#183 = PLANE ( 'NONE',  #161 ) ;
#184 = AXIS2_PLACEMENT_3D ( 'NONE', #41, #135, #198 ) ;
#185 = DIRECTION ( 'NONE',  ( -0.000000000000000000, -0.000000000000000000, -1.000000000000000000 ) ) ;
#186 = CONICAL_SURFACE ( 'NONE', #184, 12.50000000000000000, 0.7853981633974482790 ) ;
#187 = EDGE_CURVE ( 'NONE', #190, #74, #47, .T. ) ;
#188 = CARTESIAN_POINT ( 'NONE',  ( 0.000000000000000000, 0.000000000000000000, 0.8000000000000029310 ) ) ;
#189 = CARTESIAN_POINT ( 'NONE',  ( 12.29999999999999893, 1.518562030942717967E-15, 1.000000000000000000 ) ) ;
#190 = VERTEX_POINT ( 'NONE', #50 ) ;
#191 = ADVANCED_FACE ( 'NONE', ( #52 ), #240, .T. ) ;
#192 = DIRECTION ( 'NONE',  ( 0.000000000000000000, 0.000000000000000000, 1.000000000000000000 ) ) ;
#193 =( NAMED_UNIT ( * ) PLANE_ANGLE_UNIT ( ) SI_UNIT ( $, .RADIAN. ) );
#194 = FILL_AREA_STYLE_COLOUR ( '', #53 ) ;
#195 = CONICAL_SURFACE ( 'NONE', #84, 12.29999999999999893, 0.7853981633974612686 ) ;
#196 = DIRECTION ( 'NONE',  ( -0.000000000000000000, -0.000000000000000000, -1.000000000000000000 ) ) ;
#197 = DIRECTION ( 'NONE',  ( -0.000000000000000000, -0.000000000000000000, 1.000000000000000000 ) ) ;
#198 = DIRECTION ( 'NONE',  ( 1.000000000000000000, 0.000000000000000000, 0.000000000000000000 ) ) ;
#199 = EDGE_CURVE ( 'NONE', #128, #31, #223, .T. ) ;
#200 = DIRECTION ( 'NONE',  ( 1.000000000000000000, 0.000000000000000000, 0.000000000000000000 ) ) ;
#201 = CONICAL_SURFACE ( 'NONE', #75, 12.29999999999999893, 0.7853981633974612686 ) ;
#202 = AXIS2_PLACEMENT_3D ( 'NONE', #25, #115, #81 ) ;
#203 = EDGE_LOOP ( 'NONE', ( #30, #138 ) ) ;
#204 = DIRECTION ( 'NONE',  ( 0.000000000000000000, 0.000000000000000000, -1.000000000000000000 ) ) ;
#205 = DIRECTION ( 'NONE',  ( 0.7071067811865474617, 0.000000000000000000, 0.7071067811865474617 ) ) ;
#206 = SURFACE_STYLE_USAGE ( .BOTH. , #123 ) ;
#207 = CIRCLE ( 'NONE', #70, 12.50000000000000000 ) ;
#208 = DIRECTION ( 'NONE',  ( -1.000000000000000000, 0.000000000000000000, 0.000000000000000000 ) ) ;
#209 = MANIFOLD_SOLID_BREP ( 'µ¹½Ç1', #35 ) ;
#210 = DIRECTION ( 'NONE',  ( -0.7071067811865566766, 0.000000000000000000, -0.7071067811865383579 ) ) ;
#211 = PRESENTATION_LAYER_ASSIGNMENT (  '', '', ( #133 ) ) ;
#212 = ORIENTED_EDGE ( 'NONE', *, *, #224, .T. ) ;
#213 = ADVANCED_FACE ( 'NONE', ( #18 ), #102, .T. ) ;
#214 = DIRECTION ( 'NONE',  ( 0.7071067811865566766, 8.659560562355045024E-17, -0.7071067811865383579 ) ) ;
#215 = VERTEX_POINT ( 'NONE', #189 ) ;
#216 = DIRECTION ( 'NONE',  ( 1.000000000000000000, 0.000000000000000000, 0.000000000000000000 ) ) ;
#217 = ADVANCED_FACE ( 'NONE', ( #71 ), #19, .T. ) ;
#218 = DIRECTION ( 'NONE',  ( 1.000000000000000000, 0.000000000000000000, 0.000000000000000000 ) ) ;
#219 = DIRECTION ( 'NONE',  ( -0.000000000000000000, -0.000000000000000000, 1.000000000000000000 ) ) ;
#220 = CARTESIAN_POINT ( 'NONE',  ( 0.000000000000000000, 0.000000000000000000, 1.000000000000000000 ) ) ;
#221 = UNCERTAINTY_MEASURE_WITH_UNIT (LENGTH_MEASURE( 1.000000000000000082E-05 ), #26, 'distance_accuracy_value', 'NONE');
#222 = DIRECTION ( 'NONE',  ( 0.000000000000000000, 0.000000000000000000, 1.000000000000000000 ) ) ;
#223 = LINE ( 'NONE', #68, #118 ) ;
#224 = EDGE_CURVE ( 'NONE', #236, #74, #39, .T. ) ;
#225 = DIRECTION ( 'NONE',  ( 1.000000000000000000, 0.000000000000000000, 0.000000000000000000 ) ) ;
#226 = APPLICATION_CONTEXT ( 'automotive_design' ) ;
#227 = DIRECTION ( 'NONE',  ( -1.000000000000000000, 0.000000000000000000, 0.000000000000000000 ) ) ;
#228 = AXIS2_PLACEMENT_3D ( 'NONE', #33, #85, #38 ) ;
#229 = CIRCLE ( 'NONE', #8, 12.30000000000000249 ) ;
#230 = ORIENTED_EDGE ( 'NONE', *, *, #130, .T. ) ;
#231 = DIRECTION ( 'NONE',  ( 1.000000000000000000, 0.000000000000000000, 0.000000000000000000 ) ) ;
#232 = ORIENTED_EDGE ( 'NONE', *, *, #56, .F. ) ;
#233 = AXIS2_PLACEMENT_3D ( 'NONE', #95, #192, #231 ) ;
#234 = CARTESIAN_POINT ( 'NONE',  ( -12.29999999999999893, 0.000000000000000000, 1.000000000000000000 ) ) ;
#235 = ADVANCED_FACE ( 'NONE', ( #108 ), #195, .T. ) ;
#236 = VERTEX_POINT ( 'NONE', #234 ) ;
#237 = DIRECTION ( 'NONE',  ( 1.000000000000000000, 0.000000000000000000, 0.000000000000000000 ) ) ;
#238 = ORIENTED_EDGE ( 'NONE', *, *, #187, .T. ) ;
#239 = DIRECTION ( 'NONE',  ( -0.000000000000000000, -0.000000000000000000, -1.000000000000000000 ) ) ;
#240 = CONICAL_SURFACE ( 'NONE', #228, 12.50000000000000000, 0.7853981633974482790 ) ;
ENDSEC;
END-ISO-10303-21;
