ISO-10303-21;
HEADER;
FILE_DESCRIPTION (( 'STEP AP214' ),
    '1' );
FILE_NAME ('GNIF-170-4400-D10.STEP',
    '2024-07-19T14:43:13',
    ( '' ),
    ( '' ),
    'SwSTEP 2.0',
    'SolidWorks 2022',
    '' );
FILE_SCHEMA (( 'AUTOMOTIVE_DESIGN' ));
ENDSEC;

DATA;
#1 = ORIENTED_EDGE ( 'NONE', *, *, #118, .T. ) ;
#2 = CLOSED_SHELL ( 'NONE', ( #111, #44, #102, #14, #122, #49, #239, #172 ) ) ;
#3 = FACE_OUTER_BOUND ( 'NONE', #69, .T. ) ;
#4 = EDGE_LOOP ( 'NONE', ( #127, #150 ) ) ;
#5 = DIRECTION ( 'NONE',  ( 1.000000000000000000, 0.000000000000000000, 0.000000000000000000 ) ) ;
#6 = APPLICATION_CONTEXT ( 'automotive_design' ) ;
#7 = VERTEX_POINT ( 'NONE', #199 ) ;
#8 = DIRECTION ( 'NONE',  ( 0.000000000000000000, 0.000000000000000000, 1.000000000000000000 ) ) ;
#9 = CARTESIAN_POINT ( 'NONE',  ( 5.000000000000000000, 6.123233995736766282E-16, 1.000000000000000000 ) ) ;
#10 = ORIENTED_EDGE ( 'NONE', *, *, #204, .T. ) ;
#11 = SURFACE_SIDE_STYLE ('',( #173 ) ) ;
#12 = AXIS2_PLACEMENT_3D ( 'NONE', #223, #56, #74 ) ;
#13 = PRESENTATION_LAYER_ASSIGNMENT (  '', '', ( #94 ) ) ;
#14 = ADVANCED_FACE ( 'NONE', ( #109 ), #180, .T. ) ;
#15 = CIRCLE ( 'NONE', #31, 5.000000000000000000 ) ;
#16 =( NAMED_UNIT ( * ) PLANE_ANGLE_UNIT ( ) SI_UNIT ( $, .RADIAN. ) );
#17 = APPLICATION_CONTEXT ( 'automotive_design' ) ;
#18 = VERTEX_POINT ( 'NONE', #128 ) ;
#19 = CARTESIAN_POINT ( 'NONE',  ( 0.000000000000000000, 0.000000000000000000, 0.1999999999999996503 ) ) ;
#20 = EDGE_CURVE ( 'NONE', #72, #95, #51, .T. ) ;
#21 = CARTESIAN_POINT ( 'NONE',  ( 4.800000000000002487, 5.878304635907297169E-16, 1.000000000000000000 ) ) ;
#22 = DIRECTION ( 'NONE',  ( 1.000000000000000000, 0.000000000000000000, 0.000000000000000000 ) ) ;
#23 = CARTESIAN_POINT ( 'NONE',  ( -4.799999999999999822, 6.000769315822029754E-16, 0.000000000000000000 ) ) ;
#24 = AXIS2_PLACEMENT_3D ( 'NONE', #41, #183, #22 ) ;
#25 = CARTESIAN_POINT ( 'NONE',  ( 0.000000000000000000, 0.000000000000000000, 1.000000000000000000 ) ) ;
#26 = ADVANCED_BREP_SHAPE_REPRESENTATION ( 'GNIF-170-4400-D10', ( #209, #232 ), #229 ) ;
#27 = DIRECTION ( 'NONE',  ( -0.000000000000000000, -0.000000000000000000, -1.000000000000000000 ) ) ;
#28 = EDGE_CURVE ( 'NONE', #202, #7, #63, .T. ) ;
#29 = AXIS2_PLACEMENT_3D ( 'NONE', #50, #167, #184 ) ;
#30 = AXIS2_PLACEMENT_3D ( 'NONE', #48, #218, #164 ) ;
#31 = AXIS2_PLACEMENT_3D ( 'NONE', #221, #35, #97 ) ;
#32 = VERTEX_POINT ( 'NONE', #133 ) ;
#33 = EDGE_LOOP ( 'NONE', ( #79, #195, #106, #206 ) ) ;
#34 = PRODUCT_DEFINITION_FORMATION_WITH_SPECIFIED_SOURCE ( 'ÈÎºÎ', '', #136, .NOT_KNOWN. ) ;
#35 = DIRECTION ( 'NONE',  ( 0.000000000000000000, 0.000000000000000000, -1.000000000000000000 ) ) ;
#36 = DIRECTION ( 'NONE',  ( -0.7071067811865490160, 8.659560562354950115E-17, 0.7071067811865459074 ) ) ;
#37 = DIRECTION ( 'NONE',  ( 1.000000000000000000, 0.000000000000000000, 0.000000000000000000 ) ) ;
#38 = PRODUCT_RELATED_PRODUCT_CATEGORY ( 'part', '', ( #136 ) ) ;
#39 = CARTESIAN_POINT ( 'NONE',  ( -4.800000000000002487, 0.000000000000000000, 1.000000000000000000 ) ) ;
#40 = AXIS2_PLACEMENT_3D ( 'NONE', #129, #131, #37 ) ;
#41 = CARTESIAN_POINT ( 'NONE',  ( 0.000000000000000000, 0.000000000000000000, 0.1999999999999996503 ) ) ;
#42 = AXIS2_PLACEMENT_3D ( 'NONE', #181, #240, #78 ) ;
#43 = DIRECTION ( 'NONE',  ( 1.000000000000000000, 0.000000000000000000, 0.000000000000000000 ) ) ;
#44 = ADVANCED_FACE ( 'NONE', ( #147 ), #154, .T. ) ;
#45 = CONICAL_SURFACE ( 'NONE', #75, 5.000000000000000000, 0.7853981633974503884 ) ;
#46 = UNCERTAINTY_MEASURE_WITH_UNIT (LENGTH_MEASURE( 1.000000000000000082E-05 ), #103, 'distance_accuracy_value', 'NONE');
#47 = VECTOR ( 'NONE', #225, 1000.000000000000000 ) ;
#48 = CARTESIAN_POINT ( 'NONE',  ( 0.000000000000000000, 0.000000000000000000, 1.000000000000000000 ) ) ;
#49 = ADVANCED_FACE ( 'NONE', ( #196 ), #92, .F. ) ;
#50 = CARTESIAN_POINT ( 'NONE',  ( 0.000000000000000000, 0.000000000000000000, 1.000000000000000000 ) ) ;
#51 = LINE ( 'NONE', #130, #227 ) ;
#52 = DIRECTION ( 'NONE',  ( -0.7071067811865460184, 0.000000000000000000, -0.7071067811865489050 ) ) ;
#53 = EDGE_LOOP ( 'NONE', ( #135, #168, #88, #238 ) ) ;
#54 = DIRECTION ( 'NONE',  ( 1.000000000000000000, 0.000000000000000000, -0.000000000000000000 ) ) ;
#55 = DIRECTION ( 'NONE',  ( -0.000000000000000000, -0.000000000000000000, 1.000000000000000000 ) ) ;
#56 = DIRECTION ( 'NONE',  ( -0.000000000000000000, -0.000000000000000000, 1.000000000000000000 ) ) ;
#57 = VECTOR ( 'NONE', #52, 1000.000000000000114 ) ;
#58 = DIRECTION ( 'NONE',  ( 0.7071067811865490160, 0.000000000000000000, 0.7071067811865459074 ) ) ;
#59 = EDGE_CURVE ( 'NONE', #72, #161, #185, .T. ) ;
#60 = EDGE_LOOP ( 'NONE', ( #214, #160 ) ) ;
#61 =( LENGTH_UNIT ( ) NAMED_UNIT ( * ) SI_UNIT ( .MILLI., .METRE. ) );
#62 = FACE_OUTER_BOUND ( 'NONE', #33, .T. ) ;
#63 = CIRCLE ( 'NONE', #193, 4.800000000000002487 ) ;
#64 = CIRCLE ( 'NONE', #141, 4.800000000000002487 ) ;
#65 = COLOUR_RGB ( '',1.000000000000000000, 1.000000000000000000, 1.000000000000000000 ) ;
#66 = EDGE_CURVE ( 'NONE', #7, #32, #201, .T. ) ;
#67 = DIRECTION ( 'NONE',  ( -1.000000000000000000, 0.000000000000000000, 0.000000000000000000 ) ) ;
#68 = FILL_AREA_STYLE_COLOUR ( '', #65 ) ;
#69 = EDGE_LOOP ( 'NONE', ( #197, #143, #233, #144 ) ) ;
#70 = AXIS2_PLACEMENT_3D ( 'NONE', #165, #220, #54 ) ;
#71 = ORIENTED_EDGE ( 'NONE', *, *, #83, .T. ) ;
#72 = VERTEX_POINT ( 'NONE', #23 ) ;
#73 = DIRECTION ( 'NONE',  ( 1.000000000000000000, 0.000000000000000000, 0.000000000000000000 ) ) ;
#74 = DIRECTION ( 'NONE',  ( 1.000000000000000000, 0.000000000000000000, 0.000000000000000000 ) ) ;
#75 = AXIS2_PLACEMENT_3D ( 'NONE', #19, #55, #77 ) ;
#76 = MECHANICAL_DESIGN_GEOMETRIC_PRESENTATION_REPRESENTATION (  '', ( #94 ), #194 ) ;
#77 = DIRECTION ( 'NONE',  ( 1.000000000000000000, 0.000000000000000000, 0.000000000000000000 ) ) ;
#78 = DIRECTION ( 'NONE',  ( 1.000000000000000000, 0.000000000000000000, 0.000000000000000000 ) ) ;
#79 = ORIENTED_EDGE ( 'NONE', *, *, #178, .F. ) ;
#80 = FACE_OUTER_BOUND ( 'NONE', #53, .T. ) ;
#81 = EDGE_CURVE ( 'NONE', #32, #95, #170, .T. ) ;
#82 = ORIENTED_EDGE ( 'NONE', *, *, #28, .F. ) ;
#83 = EDGE_CURVE ( 'NONE', #18, #32, #93, .T. ) ;
#84 =( NAMED_UNIT ( * ) SI_UNIT ( $, .STERADIAN. ) SOLID_ANGLE_UNIT ( ) );
#85 = CIRCLE ( 'NONE', #42, 5.000000000000000000 ) ;
#86 = VECTOR ( 'NONE', #58, 1000.000000000000000 ) ;
#87 = EDGE_CURVE ( 'NONE', #95, #162, #177, .T. ) ;
#88 = ORIENTED_EDGE ( 'NONE', *, *, #222, .T. ) ;
#89 = DIRECTION ( 'NONE',  ( 0.7071067811865460184, 8.659560562354913137E-17, -0.7071067811865489050 ) ) ;
#90 = ORIENTED_EDGE ( 'NONE', *, *, #211, .F. ) ;
#91 = PRESENTATION_STYLE_ASSIGNMENT (( #212 ) ) ;
#92 = PLANE ( 'NONE',  #124 ) ;
#93 = CIRCLE ( 'NONE', #213, 5.000000000000000000 ) ;
#94 = STYLED_ITEM ( 'NONE', ( #91 ), #26 ) ;
#95 = VERTEX_POINT ( 'NONE', #108 ) ;
#96 = PRESENTATION_LAYER_ASSIGNMENT (  '', '', ( #142 ) ) ;
#97 = DIRECTION ( 'NONE',  ( 1.000000000000000000, 0.000000000000000000, 0.000000000000000000 ) ) ;
#98 = CARTESIAN_POINT ( 'NONE',  ( 0.000000000000000000, 0.000000000000000000, 0.000000000000000000 ) ) ;
#99 =( NAMED_UNIT ( * ) PLANE_ANGLE_UNIT ( ) SI_UNIT ( $, .RADIAN. ) );
#100 = FILL_AREA_STYLE_COLOUR ( '', #228 ) ;
#101 = SHAPE_DEFINITION_REPRESENTATION ( #175, #26 ) ;
#102 = ADVANCED_FACE ( 'NONE', ( #114 ), #179, .T. ) ;
#103 =( LENGTH_UNIT ( ) NAMED_UNIT ( * ) SI_UNIT ( .MILLI., .METRE. ) );
#104 = DIRECTION ( 'NONE',  ( 1.000000000000000000, 0.000000000000000000, 0.000000000000000000 ) ) ;
#105 = EDGE_CURVE ( 'NONE', #7, #202, #64, .T. ) ;
#106 = ORIENTED_EDGE ( 'NONE', *, *, #66, .T. ) ;
#107 = EDGE_LOOP ( 'NONE', ( #90, #71, #152, #139 ) ) ;
#108 = CARTESIAN_POINT ( 'NONE',  ( -5.000000000000000000, 0.000000000000000000, 0.1999999999999996503 ) ) ;
#109 = FACE_OUTER_BOUND ( 'NONE', #107, .T. ) ;
#110 = PLANE ( 'NONE',  #70 ) ;
#111 = ADVANCED_FACE ( 'NONE', ( #3 ), #45, .T. ) ;
#112 = CARTESIAN_POINT ( 'NONE',  ( 0.000000000000000000, 0.000000000000000000, 1.000000000000000000 ) ) ;
#113 = DIRECTION ( 'NONE',  ( 0.000000000000000000, 0.000000000000000000, -1.000000000000000000 ) ) ;
#114 = FACE_OUTER_BOUND ( 'NONE', #146, .T. ) ;
#115 = ORIENTED_EDGE ( 'NONE', *, *, #66, .F. ) ;
#116 = AXIS2_PLACEMENT_3D ( 'NONE', #205, #27, #43 ) ;
#117 = CARTESIAN_POINT ( 'NONE',  ( 0.000000000000000000, 0.000000000000000000, 1.000000000000000000 ) ) ;
#118 = EDGE_CURVE ( 'NONE', #32, #18, #15, .T. ) ;
#119 = CARTESIAN_POINT ( 'NONE',  ( 0.000000000000000000, 0.000000000000000000, 1.000000000000000000 ) ) ;
#120 = FILL_AREA_STYLE ('',( #100 ) ) ;
#121 = AXIS2_PLACEMENT_3D ( 'NONE', #25, #145, #219 ) ;
#122 = ADVANCED_FACE ( 'NONE', ( #187 ), #110, .T. ) ;
#123 = DIRECTION ( 'NONE',  ( 0.000000000000000000, 0.000000000000000000, 1.000000000000000000 ) ) ;
#124 = AXIS2_PLACEMENT_3D ( 'NONE', #98, #151, #217 ) ;
#125 = CONICAL_SURFACE ( 'NONE', #24, 5.000000000000000000, 0.7853981633974503884 ) ;
#126 = MECHANICAL_DESIGN_GEOMETRIC_PRESENTATION_REPRESENTATION (  '', ( #142 ), #230 ) ;
#127 = ORIENTED_EDGE ( 'NONE', *, *, #105, .T. ) ;
#128 = CARTESIAN_POINT ( 'NONE',  ( 5.000000000000000000, 6.123233995736766282E-16, 0.8000000000000012657 ) ) ;
#129 = CARTESIAN_POINT ( 'NONE',  ( 0.000000000000000000, 0.000000000000000000, 0.000000000000000000 ) ) ;
#130 = CARTESIAN_POINT ( 'NONE',  ( -5.000000000000000000, 6.123233995736765296E-16, 0.1999999999999996503 ) ) ;
#131 = DIRECTION ( 'NONE',  ( -0.000000000000000000, -0.000000000000000000, -1.000000000000000000 ) ) ;
#132 = ORIENTED_EDGE ( 'NONE', *, *, #118, .F. ) ;
#133 = CARTESIAN_POINT ( 'NONE',  ( -5.000000000000000000, 0.000000000000000000, 0.8000000000000012657 ) ) ;
#134 =( NAMED_UNIT ( * ) PLANE_ANGLE_UNIT ( ) SI_UNIT ( $, .RADIAN. ) );
#135 = ORIENTED_EDGE ( 'NONE', *, *, #20, .F. ) ;
#136 = PRODUCT ( 'GNIF-170-4400-D10', 'GNIF-170-4400-D10', '', ( #210 ) ) ;
#137 = UNCERTAINTY_MEASURE_WITH_UNIT (LENGTH_MEASURE( 1.000000000000000082E-05 ), #61, 'distance_accuracy_value', 'NONE');
#138 = SURFACE_STYLE_FILL_AREA ( #176 ) ;
#139 = ORIENTED_EDGE ( 'NONE', *, *, #87, .T. ) ;
#140 = SURFACE_SIDE_STYLE ('',( #138 ) ) ;
#141 = AXIS2_PLACEMENT_3D ( 'NONE', #117, #8, #198 ) ;
#142 = STYLED_ITEM ( 'NONE', ( #208 ), #209 ) ;
#143 = ORIENTED_EDGE ( 'NONE', *, *, #20, .T. ) ;
#144 = ORIENTED_EDGE ( 'NONE', *, *, #222, .F. ) ;
#145 = DIRECTION ( 'NONE',  ( 0.000000000000000000, 0.000000000000000000, -1.000000000000000000 ) ) ;
#146 = EDGE_LOOP ( 'NONE', ( #1, #236, #10, #216 ) ) ;
#147 = FACE_OUTER_BOUND ( 'NONE', #156, .T. ) ;
#148 = CONICAL_SURFACE ( 'NONE', #186, 4.800000000000002487, 0.7853981633974461696 ) ;
#149 = CARTESIAN_POINT ( 'NONE',  ( -5.000000000000000000, 0.000000000000000000, 1.000000000000000000 ) ) ;
#150 = ORIENTED_EDGE ( 'NONE', *, *, #28, .T. ) ;
#151 = DIRECTION ( 'NONE',  ( 0.000000000000000000, 0.000000000000000000, 1.000000000000000000 ) ) ;
#152 = ORIENTED_EDGE ( 'NONE', *, *, #81, .T. ) ;
#153 = CARTESIAN_POINT ( 'NONE',  ( 0.000000000000000000, 0.000000000000000000, 0.8000000000000012657 ) ) ;
#154 = CONICAL_SURFACE ( 'NONE', #121, 4.800000000000002487, 0.7853981633974461696 ) ;
#155 =( LENGTH_UNIT ( ) NAMED_UNIT ( * ) SI_UNIT ( .MILLI., .METRE. ) );
#156 = EDGE_LOOP ( 'NONE', ( #82, #235, #132, #115 ) ) ;
#157 = VECTOR ( 'NONE', #89, 1000.000000000000114 ) ;
#158 = LINE ( 'NONE', #224, #86 ) ;
#159 =( NAMED_UNIT ( * ) SI_UNIT ( $, .STERADIAN. ) SOLID_ANGLE_UNIT ( ) );
#160 = ORIENTED_EDGE ( 'NONE', *, *, #59, .T. ) ;
#161 = VERTEX_POINT ( 'NONE', #203 ) ;
#162 = VERTEX_POINT ( 'NONE', #163 ) ;
#163 = CARTESIAN_POINT ( 'NONE',  ( 5.000000000000000000, 6.123233995736766282E-16, 0.1999999999999996503 ) ) ;
#164 = DIRECTION ( 'NONE',  ( -1.000000000000000000, 0.000000000000000000, 0.000000000000000000 ) ) ;
#165 = CARTESIAN_POINT ( 'NONE',  ( 0.000000000000000000, 0.000000000000000000, 1.000000000000000000 ) ) ;
#166 = CARTESIAN_POINT ( 'NONE',  ( 0.000000000000000000, 0.000000000000000000, 0.000000000000000000 ) ) ;
#167 = DIRECTION ( 'NONE',  ( -0.000000000000000000, -0.000000000000000000, -1.000000000000000000 ) ) ;
#168 = ORIENTED_EDGE ( 'NONE', *, *, #234, .F. ) ;
#169 = LINE ( 'NONE', #21, #157 ) ;
#170 = LINE ( 'NONE', #149, #207 ) ;
#171 = LINE ( 'NONE', #9, #47 ) ;
#172 = ADVANCED_FACE ( 'NONE', ( #80 ), #125, .T. ) ;
#173 = SURFACE_STYLE_FILL_AREA ( #120 ) ;
#174 = PRODUCT_DEFINITION_CONTEXT ( 'detailed design', #17, 'design' ) ;
#175 = PRODUCT_DEFINITION_SHAPE ( 'NONE', 'NONE',  #189 ) ;
#176 = FILL_AREA_STYLE ('',( #68 ) ) ;
#177 = CIRCLE ( 'NONE', #12, 5.000000000000000000 ) ;
#178 = EDGE_CURVE ( 'NONE', #202, #18, #169, .T. ) ;
#179 = CYLINDRICAL_SURFACE ( 'NONE', #29, 5.000000000000000000 ) ;
#180 = CYLINDRICAL_SURFACE ( 'NONE', #30, 5.000000000000000000 ) ;
#181 = CARTESIAN_POINT ( 'NONE',  ( 0.000000000000000000, 0.000000000000000000, 0.1999999999999996503 ) ) ;
#182 = DIRECTION ( 'NONE',  ( 0.000000000000000000, 0.000000000000000000, 1.000000000000000000 ) ) ;
#183 = DIRECTION ( 'NONE',  ( -0.000000000000000000, -0.000000000000000000, 1.000000000000000000 ) ) ;
#184 = DIRECTION ( 'NONE',  ( -1.000000000000000000, 0.000000000000000000, 0.000000000000000000 ) ) ;
#185 = CIRCLE ( 'NONE', #40, 4.799999999999999822 ) ;
#186 = AXIS2_PLACEMENT_3D ( 'NONE', #119, #188, #67 ) ;
#187 = FACE_OUTER_BOUND ( 'NONE', #4, .T. ) ;
#188 = DIRECTION ( 'NONE',  ( 0.000000000000000000, 0.000000000000000000, -1.000000000000000000 ) ) ;
#189 = PRODUCT_DEFINITION ( 'Î´Öª', '', #34, #174 ) ;
#190 = SURFACE_STYLE_USAGE ( .BOTH. , #11 ) ;
#191 = APPLICATION_PROTOCOL_DEFINITION ( 'draft international standard', 'automotive_design', 1998, #17 ) ;
#192 = APPLICATION_PROTOCOL_DEFINITION ( 'draft international standard', 'automotive_design', 1998, #6 ) ;
#193 = AXIS2_PLACEMENT_3D ( 'NONE', #112, #182, #73 ) ;
#194 =( GEOMETRIC_REPRESENTATION_CONTEXT ( 3 ) GLOBAL_UNCERTAINTY_ASSIGNED_CONTEXT ( ( #46 ) ) GLOBAL_UNIT_ASSIGNED_CONTEXT ( ( #103, #16, #159 ) ) REPRESENTATION_CONTEXT ( 'NONE', 'WORKASPACE' ) );
#195 = ORIENTED_EDGE ( 'NONE', *, *, #105, .F. ) ;
#196 = FACE_OUTER_BOUND ( 'NONE', #60, .T. ) ;
#197 = ORIENTED_EDGE ( 'NONE', *, *, #59, .F. ) ;
#198 = DIRECTION ( 'NONE',  ( 1.000000000000000000, 0.000000000000000000, 0.000000000000000000 ) ) ;
#199 = CARTESIAN_POINT ( 'NONE',  ( -4.800000000000002487, 0.000000000000000000, 1.000000000000000000 ) ) ;
#200 = DIRECTION ( 'NONE',  ( -0.000000000000000000, -0.000000000000000000, -1.000000000000000000 ) ) ;
#201 = LINE ( 'NONE', #39, #57 ) ;
#202 = VERTEX_POINT ( 'NONE', #237 ) ;
#203 = CARTESIAN_POINT ( 'NONE',  ( 4.799999999999999822, 0.000000000000000000, 0.000000000000000000 ) ) ;
#204 = EDGE_CURVE ( 'NONE', #162, #95, #85, .T. ) ;
#205 = CARTESIAN_POINT ( 'NONE',  ( 0.000000000000000000, 0.000000000000000000, 0.000000000000000000 ) ) ;
#206 = ORIENTED_EDGE ( 'NONE', *, *, #83, .F. ) ;
#207 = VECTOR ( 'NONE', #200, 1000.000000000000000 ) ;
#208 = PRESENTATION_STYLE_ASSIGNMENT (( #190 ) ) ;
#209 = MANIFOLD_SOLID_BREP ( 'µ¹½Ç1', #2 ) ;
#210 = PRODUCT_CONTEXT ( 'NONE', #6, 'mechanical' ) ;
#211 = EDGE_CURVE ( 'NONE', #18, #162, #171, .T. ) ;
#212 = SURFACE_STYLE_USAGE ( .BOTH. , #140 ) ;
#213 = AXIS2_PLACEMENT_3D ( 'NONE', #153, #113, #5 ) ;
#214 = ORIENTED_EDGE ( 'NONE', *, *, #234, .T. ) ;
#215 = CIRCLE ( 'NONE', #116, 4.799999999999999822 ) ;
#216 = ORIENTED_EDGE ( 'NONE', *, *, #81, .F. ) ;
#217 = DIRECTION ( 'NONE',  ( 1.000000000000000000, 0.000000000000000000, -0.000000000000000000 ) ) ;
#218 = DIRECTION ( 'NONE',  ( -0.000000000000000000, -0.000000000000000000, -1.000000000000000000 ) ) ;
#219 = DIRECTION ( 'NONE',  ( -1.000000000000000000, 0.000000000000000000, 0.000000000000000000 ) ) ;
#220 = DIRECTION ( 'NONE',  ( 0.000000000000000000, 0.000000000000000000, 1.000000000000000000 ) ) ;
#221 = CARTESIAN_POINT ( 'NONE',  ( 0.000000000000000000, 0.000000000000000000, 0.8000000000000012657 ) ) ;
#222 = EDGE_CURVE ( 'NONE', #161, #162, #158, .T. ) ;
#223 = CARTESIAN_POINT ( 'NONE',  ( 0.000000000000000000, 0.000000000000000000, 0.1999999999999996503 ) ) ;
#224 = CARTESIAN_POINT ( 'NONE',  ( 5.000000000000000000, 0.000000000000000000, 0.1999999999999996503 ) ) ;
#225 = DIRECTION ( 'NONE',  ( -0.000000000000000000, -0.000000000000000000, -1.000000000000000000 ) ) ;
#226 =( NAMED_UNIT ( * ) SI_UNIT ( $, .STERADIAN. ) SOLID_ANGLE_UNIT ( ) );
#227 = VECTOR ( 'NONE', #36, 1000.000000000000000 ) ;
#228 = COLOUR_RGB ( '',1.000000000000000000, 1.000000000000000000, 1.000000000000000000 ) ;
#229 =( GEOMETRIC_REPRESENTATION_CONTEXT ( 3 ) GLOBAL_UNCERTAINTY_ASSIGNED_CONTEXT ( ( #137 ) ) GLOBAL_UNIT_ASSIGNED_CONTEXT ( ( #61, #99, #84 ) ) REPRESENTATION_CONTEXT ( 'NONE', 'WORKASPACE' ) );
#230 =( GEOMETRIC_REPRESENTATION_CONTEXT ( 3 ) GLOBAL_UNCERTAINTY_ASSIGNED_CONTEXT ( ( #231 ) ) GLOBAL_UNIT_ASSIGNED_CONTEXT ( ( #155, #134, #226 ) ) REPRESENTATION_CONTEXT ( 'NONE', 'WORKASPACE' ) );
#231 = UNCERTAINTY_MEASURE_WITH_UNIT (LENGTH_MEASURE( 1.000000000000000082E-05 ), #155, 'distance_accuracy_value', 'NONE');
#232 = AXIS2_PLACEMENT_3D ( 'NONE', #166, #123, #104 ) ;
#233 = ORIENTED_EDGE ( 'NONE', *, *, #204, .F. ) ;
#234 = EDGE_CURVE ( 'NONE', #161, #72, #215, .T. ) ;
#235 = ORIENTED_EDGE ( 'NONE', *, *, #178, .T. ) ;
#236 = ORIENTED_EDGE ( 'NONE', *, *, #211, .T. ) ;
#237 = CARTESIAN_POINT ( 'NONE',  ( 4.800000000000002487, 6.000769315822031726E-16, 1.000000000000000000 ) ) ;
#238 = ORIENTED_EDGE ( 'NONE', *, *, #87, .F. ) ;
#239 = ADVANCED_FACE ( 'NONE', ( #62 ), #148, .T. ) ;
#240 = DIRECTION ( 'NONE',  ( -0.000000000000000000, -0.000000000000000000, 1.000000000000000000 ) ) ;
ENDSEC;
END-ISO-10303-21;
