ISO-10303-21;
HEADER;
FILE_DESCRIPTION (( 'STEP AP214' ),
    '1' );
FILE_NAME ('GNIF-220-5250-D10.STEP',
    '2024-07-19T14:45:01',
    ( '' ),
    ( '' ),
    'SwSTEP 2.0',
    'SolidWorks 2022',
    '' );
FILE_SCHEMA (( 'AUTOMOTIVE_DESIGN' ));
ENDSEC;

DATA;
#1 = DIRECTION ( 'NONE',  ( -1.000000000000000000, 0.000000000000000000, 0.000000000000000000 ) ) ;
#2 = SURFACE_STYLE_USAGE ( .BOTH. , #176 ) ;
#3 = ORIENTED_EDGE ( 'NONE', *, *, #222, .F. ) ;
#4 = AXIS2_PLACEMENT_3D ( 'NONE', #46, #167, #128 ) ;
#5 = DIRECTION ( 'NONE',  ( 1.000000000000000000, 0.000000000000000000, 0.000000000000000000 ) ) ;
#6 = EDGE_LOOP ( 'NONE', ( #55, #18 ) ) ;
#7 = DIRECTION ( 'NONE',  ( -0.000000000000000000, -0.000000000000000000, 1.000000000000000000 ) ) ;
#8 = ORIENTED_EDGE ( 'NONE', *, *, #115, .F. ) ;
#9 = CARTESIAN_POINT ( 'NONE',  ( 5.000000000000000000, 6.123233995736766282E-16, 0.8000000000000012657 ) ) ;
#10 = ORIENTED_EDGE ( 'NONE', *, *, #21, .F. ) ;
#11 = DIRECTION ( 'NONE',  ( -0.000000000000000000, -0.000000000000000000, -1.000000000000000000 ) ) ;
#12 = DIRECTION ( 'NONE',  ( 1.000000000000000000, 0.000000000000000000, 0.000000000000000000 ) ) ;
#13 = CIRCLE ( 'NONE', #225, 4.799999999999999822 ) ;
#14 = PLANE ( 'NONE',  #57 ) ;
#15 = EDGE_CURVE ( 'NONE', #43, #19, #188, .T. ) ;
#16 = DIRECTION ( 'NONE',  ( 1.000000000000000000, 0.000000000000000000, 0.000000000000000000 ) ) ;
#17 = CARTESIAN_POINT ( 'NONE',  ( -5.000000000000000000, 0.000000000000000000, 1.000000000000000000 ) ) ;
#18 = ORIENTED_EDGE ( 'NONE', *, *, #84, .T. ) ;
#19 = VERTEX_POINT ( 'NONE', #186 ) ;
#20 = DIRECTION ( 'NONE',  ( 1.000000000000000000, 0.000000000000000000, 0.000000000000000000 ) ) ;
#21 = EDGE_CURVE ( 'NONE', #207, #160, #112, .T. ) ;
#22 =( LENGTH_UNIT ( ) NAMED_UNIT ( * ) SI_UNIT ( .MILLI., .METRE. ) );
#23 = AXIS2_PLACEMENT_3D ( 'NONE', #78, #103, #83 ) ;
#24 = DIRECTION ( 'NONE',  ( 1.000000000000000000, 0.000000000000000000, 0.000000000000000000 ) ) ;
#25 = MECHANICAL_DESIGN_GEOMETRIC_PRESENTATION_REPRESENTATION (  '', ( #155 ), #189 ) ;
#26 =( NAMED_UNIT ( * ) PLANE_ANGLE_UNIT ( ) SI_UNIT ( $, .RADIAN. ) );
#27 = ORIENTED_EDGE ( 'NONE', *, *, #84, .F. ) ;
#28 = DIRECTION ( 'NONE',  ( 1.000000000000000000, 0.000000000000000000, 0.000000000000000000 ) ) ;
#29 = FACE_OUTER_BOUND ( 'NONE', #6, .T. ) ;
#30 = VERTEX_POINT ( 'NONE', #170 ) ;
#31 = SURFACE_STYLE_USAGE ( .BOTH. , #204 ) ;
#32 = DIRECTION ( 'NONE',  ( -0.7071067811865490160, 8.659560562354950115E-17, 0.7071067811865459074 ) ) ;
#33 = MECHANICAL_DESIGN_GEOMETRIC_PRESENTATION_REPRESENTATION (  '', ( #89 ), #90 ) ;
#34 = CONICAL_SURFACE ( 'NONE', #174, 4.800000000000002487, 0.7853981633974461696 ) ;
#35 = PRESENTATION_STYLE_ASSIGNMENT (( #2 ) ) ;
#36 = CARTESIAN_POINT ( 'NONE',  ( 0.000000000000000000, 0.000000000000000000, 0.1999999999999996503 ) ) ;
#37 = LINE ( 'NONE', #198, #162 ) ;
#38 = FILL_AREA_STYLE_COLOUR ( '', #237 ) ;
#39 = PRESENTATION_LAYER_ASSIGNMENT (  '', '', ( #155 ) ) ;
#40 = ADVANCED_FACE ( 'NONE', ( #134 ), #34, .T. ) ;
#41 = FACE_OUTER_BOUND ( 'NONE', #157, .T. ) ;
#42 = FILL_AREA_STYLE ('',( #38 ) ) ;
#43 = VERTEX_POINT ( 'NONE', #86 ) ;
#44 = CYLINDRICAL_SURFACE ( 'NONE', #100, 5.000000000000000000 ) ;
#45 = DIRECTION ( 'NONE',  ( 0.000000000000000000, 0.000000000000000000, -1.000000000000000000 ) ) ;
#46 = CARTESIAN_POINT ( 'NONE',  ( 0.000000000000000000, 0.000000000000000000, 0.1999999999999996503 ) ) ;
#47 = ADVANCED_FACE ( 'NONE', ( #29 ), #14, .F. ) ;
#48 = CARTESIAN_POINT ( 'NONE',  ( 0.000000000000000000, 0.000000000000000000, 1.000000000000000000 ) ) ;
#49 = DIRECTION ( 'NONE',  ( -1.000000000000000000, 0.000000000000000000, 0.000000000000000000 ) ) ;
#50 = CARTESIAN_POINT ( 'NONE',  ( 0.000000000000000000, 0.000000000000000000, 0.1999999999999996503 ) ) ;
#51 = DIRECTION ( 'NONE',  ( -0.000000000000000000, -0.000000000000000000, -1.000000000000000000 ) ) ;
#52 = DIRECTION ( 'NONE',  ( -0.000000000000000000, -0.000000000000000000, 1.000000000000000000 ) ) ;
#53 = ORIENTED_EDGE ( 'NONE', *, *, #216, .T. ) ;
#54 = CARTESIAN_POINT ( 'NONE',  ( 4.800000000000002487, 6.000769315822031726E-16, 1.000000000000000000 ) ) ;
#55 = ORIENTED_EDGE ( 'NONE', *, *, #115, .T. ) ;
#56 = AXIS2_PLACEMENT_3D ( 'NONE', #50, #52, #28 ) ;
#57 = AXIS2_PLACEMENT_3D ( 'NONE', #69, #232, #67 ) ;
#58 = CONICAL_SURFACE ( 'NONE', #202, 5.000000000000000000, 0.7853981633974503884 ) ;
#59 = APPLICATION_PROTOCOL_DEFINITION ( 'draft international standard', 'automotive_design', 1998, #102 ) ;
#60 = DIRECTION ( 'NONE',  ( 0.7071067811865490160, 0.000000000000000000, 0.7071067811865459074 ) ) ;
#61 = FACE_OUTER_BOUND ( 'NONE', #146, .T. ) ;
#62 = ORIENTED_EDGE ( 'NONE', *, *, #216, .F. ) ;
#63 = EDGE_CURVE ( 'NONE', #160, #71, #147, .T. ) ;
#64 = CIRCLE ( 'NONE', #206, 5.000000000000000000 ) ;
#65 = DIRECTION ( 'NONE',  ( 0.000000000000000000, 0.000000000000000000, -1.000000000000000000 ) ) ;
#66 =( NAMED_UNIT ( * ) PLANE_ANGLE_UNIT ( ) SI_UNIT ( $, .RADIAN. ) );
#67 = DIRECTION ( 'NONE',  ( 1.000000000000000000, 0.000000000000000000, -0.000000000000000000 ) ) ;
#68 = CARTESIAN_POINT ( 'NONE',  ( -5.000000000000000000, 0.000000000000000000, 0.8000000000000012657 ) ) ;
#69 = CARTESIAN_POINT ( 'NONE',  ( 0.000000000000000000, 0.000000000000000000, 0.000000000000000000 ) ) ;
#70 = UNCERTAINTY_MEASURE_WITH_UNIT (LENGTH_MEASURE( 1.000000000000000082E-05 ), #193, 'distance_accuracy_value', 'NONE');
#71 = VERTEX_POINT ( 'NONE', #130 ) ;
#72 = FACE_OUTER_BOUND ( 'NONE', #235, .T. ) ;
#73 = FACE_OUTER_BOUND ( 'NONE', #214, .T. ) ;
#74 = CIRCLE ( 'NONE', #56, 5.000000000000000000 ) ;
#75 = DIRECTION ( 'NONE',  ( -0.000000000000000000, -0.000000000000000000, -1.000000000000000000 ) ) ;
#76 = CARTESIAN_POINT ( 'NONE',  ( 0.000000000000000000, 0.000000000000000000, 1.000000000000000000 ) ) ;
#77 = PRODUCT_CONTEXT ( 'NONE', #102, 'mechanical' ) ;
#78 = CARTESIAN_POINT ( 'NONE',  ( 0.000000000000000000, 0.000000000000000000, 0.000000000000000000 ) ) ;
#79 = ORIENTED_EDGE ( 'NONE', *, *, #15, .T. ) ;
#80 = FACE_OUTER_BOUND ( 'NONE', #184, .T. ) ;
#81 = EDGE_CURVE ( 'NONE', #71, #19, #64, .T. ) ;
#82 = ORIENTED_EDGE ( 'NONE', *, *, #179, .F. ) ;
#83 = DIRECTION ( 'NONE',  ( 1.000000000000000000, 0.000000000000000000, 0.000000000000000000 ) ) ;
#84 = EDGE_CURVE ( 'NONE', #43, #30, #13, .T. ) ;
#85 = EDGE_CURVE ( 'NONE', #236, #205, #87, .T. ) ;
#86 = CARTESIAN_POINT ( 'NONE',  ( -4.799999999999999822, 6.000769315822029754E-16, 0.000000000000000000 ) ) ;
#87 = CIRCLE ( 'NONE', #231, 4.800000000000002487 ) ;
#88 = ORIENTED_EDGE ( 'NONE', *, *, #63, .F. ) ;
#89 = STYLED_ITEM ( 'NONE', ( #107 ), #227 ) ;
#90 =( GEOMETRIC_REPRESENTATION_CONTEXT ( 3 ) GLOBAL_UNCERTAINTY_ASSIGNED_CONTEXT ( ( #169 ) ) GLOBAL_UNIT_ASSIGNED_CONTEXT ( ( #165, #66, #187 ) ) REPRESENTATION_CONTEXT ( 'NONE', 'WORKASPACE' ) );
#91 = EDGE_CURVE ( 'NONE', #160, #207, #136, .T. ) ;
#92 = ORIENTED_EDGE ( 'NONE', *, *, #15, .F. ) ;
#93 = ORIENTED_EDGE ( 'NONE', *, *, #111, .F. ) ;
#94 = CARTESIAN_POINT ( 'NONE',  ( 0.000000000000000000, 0.000000000000000000, 1.000000000000000000 ) ) ;
#95 = ORIENTED_EDGE ( 'NONE', *, *, #111, .T. ) ;
#96 = DIRECTION ( 'NONE',  ( 0.000000000000000000, 0.000000000000000000, -1.000000000000000000 ) ) ;
#97 = CARTESIAN_POINT ( 'NONE',  ( 0.000000000000000000, 0.000000000000000000, 1.000000000000000000 ) ) ;
#98 = PLANE ( 'NONE',  #153 ) ;
#99 = SURFACE_STYLE_FILL_AREA ( #42 ) ;
#100 = AXIS2_PLACEMENT_3D ( 'NONE', #48, #199, #1 ) ;
#101 = CIRCLE ( 'NONE', #23, 4.799999999999999822 ) ;
#102 = APPLICATION_CONTEXT ( 'automotive_design' ) ;
#103 = DIRECTION ( 'NONE',  ( -0.000000000000000000, -0.000000000000000000, -1.000000000000000000 ) ) ;
#104 = ORIENTED_EDGE ( 'NONE', *, *, #91, .F. ) ;
#105 = ADVANCED_FACE ( 'NONE', ( #72 ), #98, .T. ) ;
#106 = ORIENTED_EDGE ( 'NONE', *, *, #91, .T. ) ;
#107 = PRESENTATION_STYLE_ASSIGNMENT (( #31 ) ) ;
#108 = ORIENTED_EDGE ( 'NONE', *, *, #148, .T. ) ;
#109 = CARTESIAN_POINT ( 'NONE',  ( -4.800000000000002487, 0.000000000000000000, 1.000000000000000000 ) ) ;
#110 = ORIENTED_EDGE ( 'NONE', *, *, #85, .F. ) ;
#111 = EDGE_CURVE ( 'NONE', #236, #207, #37, .T. ) ;
#112 = CIRCLE ( 'NONE', #229, 5.000000000000000000 ) ;
#113 = DIRECTION ( 'NONE',  ( -0.000000000000000000, -0.000000000000000000, 1.000000000000000000 ) ) ;
#114 = CONICAL_SURFACE ( 'NONE', #125, 4.800000000000002487, 0.7853981633974461696 ) ;
#115 = EDGE_CURVE ( 'NONE', #30, #43, #101, .T. ) ;
#116 = CARTESIAN_POINT ( 'NONE',  ( 0.000000000000000000, 0.000000000000000000, 0.000000000000000000 ) ) ;
#117 = CONICAL_SURFACE ( 'NONE', #4, 5.000000000000000000, 0.7853981633974503884 ) ;
#118 = LINE ( 'NONE', #191, #124 ) ;
#119 = DIRECTION ( 'NONE',  ( 0.7071067811865460184, 8.659560562354913137E-17, -0.7071067811865489050 ) ) ;
#120 = ADVANCED_FACE ( 'NONE', ( #80 ), #114, .T. ) ;
#121 = CARTESIAN_POINT ( 'NONE',  ( 0.000000000000000000, 0.000000000000000000, 0.8000000000000012657 ) ) ;
#122 = AXIS2_PLACEMENT_3D ( 'NONE', #121, #96, #20 ) ;
#123 = ORIENTED_EDGE ( 'NONE', *, *, #148, .F. ) ;
#124 = VECTOR ( 'NONE', #119, 1000.000000000000114 ) ;
#125 = AXIS2_PLACEMENT_3D ( 'NONE', #142, #45, #49 ) ;
#126 = CARTESIAN_POINT ( 'NONE',  ( 0.000000000000000000, 0.000000000000000000, 1.000000000000000000 ) ) ;
#127 = VECTOR ( 'NONE', #11, 1000.000000000000000 ) ;
#128 = DIRECTION ( 'NONE',  ( 1.000000000000000000, 0.000000000000000000, 0.000000000000000000 ) ) ;
#129 = UNCERTAINTY_MEASURE_WITH_UNIT (LENGTH_MEASURE( 1.000000000000000082E-05 ), #22, 'distance_accuracy_value', 'NONE');
#130 = CARTESIAN_POINT ( 'NONE',  ( 5.000000000000000000, 6.123233995736766282E-16, 0.1999999999999996503 ) ) ;
#131 = ADVANCED_FACE ( 'NONE', ( #41 ), #44, .T. ) ;
#132 = FILL_AREA_STYLE ('',( #150 ) ) ;
#133 = EDGE_LOOP ( 'NONE', ( #123, #220, #10, #93 ) ) ;
#134 = FACE_OUTER_BOUND ( 'NONE', #133, .T. ) ;
#135 = DIRECTION ( 'NONE',  ( -1.000000000000000000, 0.000000000000000000, 0.000000000000000000 ) ) ;
#136 = CIRCLE ( 'NONE', #122, 5.000000000000000000 ) ;
#137 = DIRECTION ( 'NONE',  ( 1.000000000000000000, 0.000000000000000000, -0.000000000000000000 ) ) ;
#138 =( NAMED_UNIT ( * ) PLANE_ANGLE_UNIT ( ) SI_UNIT ( $, .RADIAN. ) );
#139 =( NAMED_UNIT ( * ) SI_UNIT ( $, .STERADIAN. ) SOLID_ANGLE_UNIT ( ) );
#140 = DIRECTION ( 'NONE',  ( -0.7071067811865460184, 0.000000000000000000, -0.7071067811865489050 ) ) ;
#141 = DIRECTION ( 'NONE',  ( 0.000000000000000000, 0.000000000000000000, 1.000000000000000000 ) ) ;
#142 = CARTESIAN_POINT ( 'NONE',  ( 0.000000000000000000, 0.000000000000000000, 1.000000000000000000 ) ) ;
#143 = DIRECTION ( 'NONE',  ( 1.000000000000000000, 0.000000000000000000, 0.000000000000000000 ) ) ;
#144 = PRESENTATION_LAYER_ASSIGNMENT (  '', '', ( #89 ) ) ;
#145 = VECTOR ( 'NONE', #51, 1000.000000000000000 ) ;
#146 = EDGE_LOOP ( 'NONE', ( #27, #79, #203, #82 ) ) ;
#147 = LINE ( 'NONE', #221, #145 ) ;
#148 = EDGE_CURVE ( 'NONE', #205, #236, #211, .T. ) ;
#149 = PRODUCT_DEFINITION_FORMATION_WITH_SPECIFIED_SOURCE ( 'ÈÎºÎ', '', #218, .NOT_KNOWN. ) ;
#150 = FILL_AREA_STYLE_COLOUR ( '', #239 ) ;
#151 = CYLINDRICAL_SURFACE ( 'NONE', #183, 5.000000000000000000 ) ;
#152 = EDGE_LOOP ( 'NONE', ( #92, #8, #182, #3 ) ) ;
#153 = AXIS2_PLACEMENT_3D ( 'NONE', #126, #164, #137 ) ;
#154 = DIRECTION ( 'NONE',  ( 1.000000000000000000, 0.000000000000000000, 0.000000000000000000 ) ) ;
#155 = STYLED_ITEM ( 'NONE', ( #35 ), #161 ) ;
#156 = FACE_OUTER_BOUND ( 'NONE', #152, .T. ) ;
#157 = EDGE_LOOP ( 'NONE', ( #88, #106, #53, #158 ) ) ;
#158 = ORIENTED_EDGE ( 'NONE', *, *, #222, .T. ) ;
#159 = DIRECTION ( 'NONE',  ( 1.000000000000000000, 0.000000000000000000, 0.000000000000000000 ) ) ;
#160 = VERTEX_POINT ( 'NONE', #9 ) ;
#161 = ADVANCED_BREP_SHAPE_REPRESENTATION ( 'GNIF-220-5250-D10', ( #227, #201 ), #238 ) ;
#162 = VECTOR ( 'NONE', #140, 1000.000000000000114 ) ;
#163 = ORIENTED_EDGE ( 'NONE', *, *, #21, .T. ) ;
#164 = DIRECTION ( 'NONE',  ( 0.000000000000000000, 0.000000000000000000, 1.000000000000000000 ) ) ;
#165 =( LENGTH_UNIT ( ) NAMED_UNIT ( * ) SI_UNIT ( .MILLI., .METRE. ) );
#166 = ORIENTED_EDGE ( 'NONE', *, *, #81, .T. ) ;
#167 = DIRECTION ( 'NONE',  ( -0.000000000000000000, -0.000000000000000000, 1.000000000000000000 ) ) ;
#168 = CARTESIAN_POINT ( 'NONE',  ( 0.000000000000000000, 0.000000000000000000, 1.000000000000000000 ) ) ;
#169 = UNCERTAINTY_MEASURE_WITH_UNIT (LENGTH_MEASURE( 1.000000000000000082E-05 ), #165, 'distance_accuracy_value', 'NONE');
#170 = CARTESIAN_POINT ( 'NONE',  ( 4.799999999999999822, 0.000000000000000000, 0.000000000000000000 ) ) ;
#171 = ORIENTED_EDGE ( 'NONE', *, *, #63, .T. ) ;
#172 = PRODUCT_DEFINITION_CONTEXT ( 'detailed design', #200, 'design' ) ;
#173 = DIRECTION ( 'NONE',  ( -1.000000000000000000, 0.000000000000000000, 0.000000000000000000 ) ) ;
#174 = AXIS2_PLACEMENT_3D ( 'NONE', #168, #65, #135 ) ;
#175 = CARTESIAN_POINT ( 'NONE',  ( 0.000000000000000000, 0.000000000000000000, 0.1999999999999996503 ) ) ;
#176 = SURFACE_SIDE_STYLE ('',( #99 ) ) ;
#177 = DIRECTION ( 'NONE',  ( 0.000000000000000000, 0.000000000000000000, 1.000000000000000000 ) ) ;
#178 = PRODUCT_DEFINITION_SHAPE ( 'NONE', 'NONE',  #190 ) ;
#179 = EDGE_CURVE ( 'NONE', #30, #71, #217, .T. ) ;
#180 = ORIENTED_EDGE ( 'NONE', *, *, #85, .T. ) ;
#181 = ADVANCED_FACE ( 'NONE', ( #156 ), #58, .T. ) ;
#182 = ORIENTED_EDGE ( 'NONE', *, *, #179, .T. ) ;
#183 = AXIS2_PLACEMENT_3D ( 'NONE', #97, #75, #173 ) ;
#184 = EDGE_LOOP ( 'NONE', ( #234, #110, #95, #104 ) ) ;
#185 = SURFACE_STYLE_FILL_AREA ( #132 ) ;
#186 = CARTESIAN_POINT ( 'NONE',  ( -5.000000000000000000, 0.000000000000000000, 0.1999999999999996503 ) ) ;
#187 =( NAMED_UNIT ( * ) SI_UNIT ( $, .STERADIAN. ) SOLID_ANGLE_UNIT ( ) );
#188 = LINE ( 'NONE', #209, #197 ) ;
#189 =( GEOMETRIC_REPRESENTATION_CONTEXT ( 3 ) GLOBAL_UNCERTAINTY_ASSIGNED_CONTEXT ( ( #129 ) ) GLOBAL_UNIT_ASSIGNED_CONTEXT ( ( #22, #138, #139 ) ) REPRESENTATION_CONTEXT ( 'NONE', 'WORKASPACE' ) );
#190 = PRODUCT_DEFINITION ( 'Î´Öª', '', #149, #172 ) ;
#191 = CARTESIAN_POINT ( 'NONE',  ( 4.800000000000002487, 5.878304635907297169E-16, 1.000000000000000000 ) ) ;
#192 = ADVANCED_FACE ( 'NONE', ( #61 ), #117, .T. ) ;
#193 =( LENGTH_UNIT ( ) NAMED_UNIT ( * ) SI_UNIT ( .MILLI., .METRE. ) );
#194 = APPLICATION_PROTOCOL_DEFINITION ( 'draft international standard', 'automotive_design', 1998, #200 ) ;
#195 = CARTESIAN_POINT ( 'NONE',  ( 0.000000000000000000, 0.000000000000000000, 0.000000000000000000 ) ) ;
#196 = CARTESIAN_POINT ( 'NONE',  ( 5.000000000000000000, 0.000000000000000000, 0.1999999999999996503 ) ) ;
#197 = VECTOR ( 'NONE', #32, 1000.000000000000000 ) ;
#198 = CARTESIAN_POINT ( 'NONE',  ( -4.800000000000002487, 0.000000000000000000, 1.000000000000000000 ) ) ;
#199 = DIRECTION ( 'NONE',  ( -0.000000000000000000, -0.000000000000000000, -1.000000000000000000 ) ) ;
#200 = APPLICATION_CONTEXT ( 'automotive_design' ) ;
#201 = AXIS2_PLACEMENT_3D ( 'NONE', #195, #141, #5 ) ;
#202 = AXIS2_PLACEMENT_3D ( 'NONE', #175, #7, #159 ) ;
#203 = ORIENTED_EDGE ( 'NONE', *, *, #81, .F. ) ;
#204 = SURFACE_SIDE_STYLE ('',( #185 ) ) ;
#205 = VERTEX_POINT ( 'NONE', #54 ) ;
#206 = AXIS2_PLACEMENT_3D ( 'NONE', #36, #113, #16 ) ;
#207 = VERTEX_POINT ( 'NONE', #68 ) ;
#208 =( NAMED_UNIT ( * ) SI_UNIT ( $, .STERADIAN. ) SOLID_ANGLE_UNIT ( ) );
#209 = CARTESIAN_POINT ( 'NONE',  ( -5.000000000000000000, 6.123233995736765296E-16, 0.1999999999999996503 ) ) ;
#210 = LINE ( 'NONE', #17, #127 ) ;
#211 = CIRCLE ( 'NONE', #230, 4.800000000000002487 ) ;
#212 = DIRECTION ( 'NONE',  ( -0.000000000000000000, -0.000000000000000000, -1.000000000000000000 ) ) ;
#213 = SHAPE_DEFINITION_REPRESENTATION ( #178, #161 ) ;
#214 = EDGE_LOOP ( 'NONE', ( #163, #171, #166, #62 ) ) ;
#215 = VECTOR ( 'NONE', #60, 1000.000000000000000 ) ;
#216 = EDGE_CURVE ( 'NONE', #207, #19, #210, .T. ) ;
#217 = LINE ( 'NONE', #196, #215 ) ;
#218 = PRODUCT ( 'GNIF-220-5250-D10', 'GNIF-220-5250-D10', '', ( #77 ) ) ;
#219 = CLOSED_SHELL ( 'NONE', ( #192, #40, #240, #131, #105, #47, #120, #181 ) ) ;
#220 = ORIENTED_EDGE ( 'NONE', *, *, #228, .T. ) ;
#221 = CARTESIAN_POINT ( 'NONE',  ( 5.000000000000000000, 6.123233995736766282E-16, 1.000000000000000000 ) ) ;
#222 = EDGE_CURVE ( 'NONE', #19, #71, #74, .T. ) ;
#223 = DIRECTION ( 'NONE',  ( 0.000000000000000000, 0.000000000000000000, -1.000000000000000000 ) ) ;
#224 = DIRECTION ( 'NONE',  ( 0.000000000000000000, 0.000000000000000000, 1.000000000000000000 ) ) ;
#225 = AXIS2_PLACEMENT_3D ( 'NONE', #116, #212, #154 ) ;
#226 = PRODUCT_RELATED_PRODUCT_CATEGORY ( 'part', '', ( #218 ) ) ;
#227 = MANIFOLD_SOLID_BREP ( 'µ¹½Ç1', #219 ) ;
#228 = EDGE_CURVE ( 'NONE', #205, #160, #118, .T. ) ;
#229 = AXIS2_PLACEMENT_3D ( 'NONE', #233, #223, #12 ) ;
#230 = AXIS2_PLACEMENT_3D ( 'NONE', #76, #177, #24 ) ;
#231 = AXIS2_PLACEMENT_3D ( 'NONE', #94, #224, #143 ) ;
#232 = DIRECTION ( 'NONE',  ( 0.000000000000000000, 0.000000000000000000, 1.000000000000000000 ) ) ;
#233 = CARTESIAN_POINT ( 'NONE',  ( 0.000000000000000000, 0.000000000000000000, 0.8000000000000012657 ) ) ;
#234 = ORIENTED_EDGE ( 'NONE', *, *, #228, .F. ) ;
#235 = EDGE_LOOP ( 'NONE', ( #180, #108 ) ) ;
#236 = VERTEX_POINT ( 'NONE', #109 ) ;
#237 = COLOUR_RGB ( '',1.000000000000000000, 1.000000000000000000, 1.000000000000000000 ) ;
#238 =( GEOMETRIC_REPRESENTATION_CONTEXT ( 3 ) GLOBAL_UNCERTAINTY_ASSIGNED_CONTEXT ( ( #70 ) ) GLOBAL_UNIT_ASSIGNED_CONTEXT ( ( #193, #26, #208 ) ) REPRESENTATION_CONTEXT ( 'NONE', 'WORKASPACE' ) );
#239 = COLOUR_RGB ( '',1.000000000000000000, 1.000000000000000000, 1.000000000000000000 ) ;
#240 = ADVANCED_FACE ( 'NONE', ( #73 ), #151, .T. ) ;
ENDSEC;
END-ISO-10303-21;
