ISO-10303-21;
HEADER;
FILE_DESCRIPTION (( 'STEP AP214' ),
    '1' );
FILE_NAME ('GNIF-140-7360-D10.STEP',
    '2024-07-19T14:46:02',
    ( '' ),
    ( '' ),
    'SwSTEP 2.0',
    'SolidWorks 2022',
    '' );
FILE_SCHEMA (( 'AUTOMOTIVE_DESIGN' ));
ENDSEC;

DATA;
#1 = APPLICATION_CONTEXT ( 'automotive_design' ) ;
#2 = ORIENTED_EDGE ( 'NONE', *, *, #47, .F. ) ;
#3 = CIRCLE ( 'NONE', #95, 5.000000000000000000 ) ;
#4 = LINE ( 'NONE', #135, #153 ) ;
#5 = LINE ( 'NONE', #98, #28 ) ;
#6 = EDGE_CURVE ( 'NONE', #189, #152, #5, .T. ) ;
#7 = AXIS2_PLACEMENT_3D ( 'NONE', #42, #126, #48 ) ;
#8 = CARTESIAN_POINT ( 'NONE',  ( 0.000000000000000000, 0.000000000000000000, 0.1999999999999996503 ) ) ;
#9 = EDGE_CURVE ( 'NONE', #59, #20, #4, .T. ) ;
#10 = CARTESIAN_POINT ( 'NONE',  ( 4.799999999999999822, 0.000000000000000000, 0.000000000000000000 ) ) ;
#11 = DIRECTION ( 'NONE',  ( 0.000000000000000000, 0.000000000000000000, 1.000000000000000000 ) ) ;
#12 = LINE ( 'NONE', #29, #106 ) ;
#13 = CARTESIAN_POINT ( 'NONE',  ( 0.000000000000000000, 0.000000000000000000, 1.000000000000000000 ) ) ;
#14 = CYLINDRICAL_SURFACE ( 'NONE', #52, 5.000000000000000000 ) ;
#15 = CARTESIAN_POINT ( 'NONE',  ( 0.000000000000000000, 0.000000000000000000, 0.000000000000000000 ) ) ;
#16 = ADVANCED_BREP_SHAPE_REPRESENTATION ( 'GNIF-140-7360-D10', ( #223, #58 ), #90 ) ;
#17 = MECHANICAL_DESIGN_GEOMETRIC_PRESENTATION_REPRESENTATION (  '', ( #55 ), #127 ) ;
#18 = SURFACE_STYLE_FILL_AREA ( #184 ) ;
#19 = ORIENTED_EDGE ( 'NONE', *, *, #222, .T. ) ;
#20 = VERTEX_POINT ( 'NONE', #227 ) ;
#21 = ADVANCED_FACE ( 'NONE', ( #54 ), #186, .T. ) ;
#22 = EDGE_LOOP ( 'NONE', ( #168, #171, #132, #35 ) ) ;
#23 = EDGE_LOOP ( 'NONE', ( #113, #114, #230, #96 ) ) ;
#24 = EDGE_CURVE ( 'NONE', #189, #20, #217, .T. ) ;
#25 = VERTEX_POINT ( 'NONE', #10 ) ;
#26 = VECTOR ( 'NONE', #181, 1000.000000000000000 ) ;
#27 = LINE ( 'NONE', #236, #182 ) ;
#28 = VECTOR ( 'NONE', #100, 1000.000000000000000 ) ;
#29 = CARTESIAN_POINT ( 'NONE',  ( 5.000000000000000000, 0.000000000000000000, 0.1999999999999996503 ) ) ;
#30 = DIRECTION ( 'NONE',  ( 1.000000000000000000, 0.000000000000000000, -0.000000000000000000 ) ) ;
#31 = CARTESIAN_POINT ( 'NONE',  ( 0.000000000000000000, 0.000000000000000000, 0.000000000000000000 ) ) ;
#32 = DIRECTION ( 'NONE',  ( -1.000000000000000000, 0.000000000000000000, 0.000000000000000000 ) ) ;
#33 = SURFACE_STYLE_USAGE ( .BOTH. , #199 ) ;
#34 = APPLICATION_PROTOCOL_DEFINITION ( 'draft international standard', 'automotive_design', 1998, #1 ) ;
#35 = ORIENTED_EDGE ( 'NONE', *, *, #47, .T. ) ;
#36 = EDGE_LOOP ( 'NONE', ( #207, #19 ) ) ;
#37 = DIRECTION ( 'NONE',  ( 1.000000000000000000, 0.000000000000000000, 0.000000000000000000 ) ) ;
#38 = CARTESIAN_POINT ( 'NONE',  ( 0.000000000000000000, 0.000000000000000000, 0.8000000000000012657 ) ) ;
#39 = ORIENTED_EDGE ( 'NONE', *, *, #92, .F. ) ;
#40 = DIRECTION ( 'NONE',  ( 1.000000000000000000, 0.000000000000000000, -0.000000000000000000 ) ) ;
#41 = VECTOR ( 'NONE', #63, 1000.000000000000114 ) ;
#42 = CARTESIAN_POINT ( 'NONE',  ( 0.000000000000000000, 0.000000000000000000, 1.000000000000000000 ) ) ;
#43 = CARTESIAN_POINT ( 'NONE',  ( -4.799999999999999822, 6.000769315822029754E-16, 0.000000000000000000 ) ) ;
#44 = CONICAL_SURFACE ( 'NONE', #7, 4.800000000000002487, 0.7853981633974461696 ) ;
#45 = FACE_OUTER_BOUND ( 'NONE', #23, .T. ) ;
#46 = CARTESIAN_POINT ( 'NONE',  ( 0.000000000000000000, 0.000000000000000000, 1.000000000000000000 ) ) ;
#47 = EDGE_CURVE ( 'NONE', #56, #152, #204, .T. ) ;
#48 = DIRECTION ( 'NONE',  ( -1.000000000000000000, 0.000000000000000000, 0.000000000000000000 ) ) ;
#49 = CARTESIAN_POINT ( 'NONE',  ( 0.000000000000000000, 0.000000000000000000, 0.000000000000000000 ) ) ;
#50 = UNCERTAINTY_MEASURE_WITH_UNIT (LENGTH_MEASURE( 1.000000000000000082E-05 ), #183, 'distance_accuracy_value', 'NONE');
#51 = PRESENTATION_STYLE_ASSIGNMENT (( #224 ) ) ;
#52 = AXIS2_PLACEMENT_3D ( 'NONE', #46, #103, #83 ) ;
#53 = ORIENTED_EDGE ( 'NONE', *, *, #24, .F. ) ;
#54 = FACE_OUTER_BOUND ( 'NONE', #147, .T. ) ;
#55 = STYLED_ITEM ( 'NONE', ( #51 ), #16 ) ;
#56 = VERTEX_POINT ( 'NONE', #102 ) ;
#57 = EDGE_LOOP ( 'NONE', ( #170, #191, #206, #53 ) ) ;
#58 = AXIS2_PLACEMENT_3D ( 'NONE', #128, #239, #68 ) ;
#59 = VERTEX_POINT ( 'NONE', #66 ) ;
#60 = LINE ( 'NONE', #105, #26 ) ;
#61 = CIRCLE ( 'NONE', #71, 4.800000000000002487 ) ;
#62 = CARTESIAN_POINT ( 'NONE',  ( 4.800000000000002487, 5.878304635907297169E-16, 1.000000000000000000 ) ) ;
#63 = DIRECTION ( 'NONE',  ( 0.7071067811865460184, 8.659560562354913137E-17, -0.7071067811865489050 ) ) ;
#64 = PRESENTATION_LAYER_ASSIGNMENT (  '', '', ( #142 ) ) ;
#65 = EDGE_CURVE ( 'NONE', #209, #189, #234, .T. ) ;
#66 = CARTESIAN_POINT ( 'NONE',  ( -4.800000000000002487, 0.000000000000000000, 1.000000000000000000 ) ) ;
#67 = CARTESIAN_POINT ( 'NONE',  ( 0.000000000000000000, 0.000000000000000000, 1.000000000000000000 ) ) ;
#68 = DIRECTION ( 'NONE',  ( 1.000000000000000000, 0.000000000000000000, 0.000000000000000000 ) ) ;
#69 = DIRECTION ( 'NONE',  ( -0.000000000000000000, -0.000000000000000000, -1.000000000000000000 ) ) ;
#70 = PRODUCT_CONTEXT ( 'NONE', #1, 'mechanical' ) ;
#71 = AXIS2_PLACEMENT_3D ( 'NONE', #175, #141, #124 ) ;
#72 = ORIENTED_EDGE ( 'NONE', *, *, #111, .F. ) ;
#73 = EDGE_LOOP ( 'NONE', ( #187, #108 ) ) ;
#74 = ORIENTED_EDGE ( 'NONE', *, *, #92, .T. ) ;
#75 = AXIS2_PLACEMENT_3D ( 'NONE', #49, #69, #166 ) ;
#76 = DIRECTION ( 'NONE',  ( -0.000000000000000000, -0.000000000000000000, 1.000000000000000000 ) ) ;
#77 = DIRECTION ( 'NONE',  ( 1.000000000000000000, 0.000000000000000000, 0.000000000000000000 ) ) ;
#78 = AXIS2_PLACEMENT_3D ( 'NONE', #138, #97, #37 ) ;
#79 = DIRECTION ( 'NONE',  ( 0.000000000000000000, 0.000000000000000000, 1.000000000000000000 ) ) ;
#80 = EDGE_CURVE ( 'NONE', #209, #59, #61, .T. ) ;
#81 = CARTESIAN_POINT ( 'NONE',  ( 0.000000000000000000, 0.000000000000000000, 0.8000000000000012657 ) ) ;
#82 = CARTESIAN_POINT ( 'NONE',  ( 0.000000000000000000, 0.000000000000000000, 0.1999999999999996503 ) ) ;
#83 = DIRECTION ( 'NONE',  ( -1.000000000000000000, 0.000000000000000000, 0.000000000000000000 ) ) ;
#84 = DIRECTION ( 'NONE',  ( -0.000000000000000000, -0.000000000000000000, -1.000000000000000000 ) ) ;
#85 = AXIS2_PLACEMENT_3D ( 'NONE', #13, #79, #30 ) ;
#86 = SURFACE_SIDE_STYLE ('',( #18 ) ) ;
#87 =( LENGTH_UNIT ( ) NAMED_UNIT ( * ) SI_UNIT ( .MILLI., .METRE. ) );
#88 = CLOSED_SHELL ( 'NONE', ( #93, #203, #129, #185, #176, #151, #229, #21 ) ) ;
#89 = ORIENTED_EDGE ( 'NONE', *, *, #9, .F. ) ;
#90 =( GEOMETRIC_REPRESENTATION_CONTEXT ( 3 ) GLOBAL_UNCERTAINTY_ASSIGNED_CONTEXT ( ( #202 ) ) GLOBAL_UNIT_ASSIGNED_CONTEXT ( ( #87, #201, #163 ) ) REPRESENTATION_CONTEXT ( 'NONE', 'WORKASPACE' ) );
#91 =( NAMED_UNIT ( * ) SI_UNIT ( $, .STERADIAN. ) SOLID_ANGLE_UNIT ( ) );
#92 = EDGE_CURVE ( 'NONE', #25, #152, #12, .T. ) ;
#93 = ADVANCED_FACE ( 'NONE', ( #174 ), #211, .T. ) ;
#94 = VERTEX_POINT ( 'NONE', #43 ) ;
#95 = AXIS2_PLACEMENT_3D ( 'NONE', #81, #156, #140 ) ;
#96 = ORIENTED_EDGE ( 'NONE', *, *, #180, .F. ) ;
#97 = DIRECTION ( 'NONE',  ( -0.000000000000000000, -0.000000000000000000, 1.000000000000000000 ) ) ;
#98 = CARTESIAN_POINT ( 'NONE',  ( 5.000000000000000000, 6.123233995736766282E-16, 1.000000000000000000 ) ) ;
#99 =( GEOMETRIC_REPRESENTATION_CONTEXT ( 3 ) GLOBAL_UNCERTAINTY_ASSIGNED_CONTEXT ( ( #50 ) ) GLOBAL_UNIT_ASSIGNED_CONTEXT ( ( #183, #167, #91 ) ) REPRESENTATION_CONTEXT ( 'NONE', 'WORKASPACE' ) );
#100 = DIRECTION ( 'NONE',  ( -0.000000000000000000, -0.000000000000000000, -1.000000000000000000 ) ) ;
#101 = DIRECTION ( 'NONE',  ( 0.000000000000000000, 0.000000000000000000, -1.000000000000000000 ) ) ;
#102 = CARTESIAN_POINT ( 'NONE',  ( -5.000000000000000000, 0.000000000000000000, 0.1999999999999996503 ) ) ;
#103 = DIRECTION ( 'NONE',  ( -0.000000000000000000, -0.000000000000000000, -1.000000000000000000 ) ) ;
#104 = DIRECTION ( 'NONE',  ( 0.000000000000000000, 0.000000000000000000, 1.000000000000000000 ) ) ;
#105 = CARTESIAN_POINT ( 'NONE',  ( -5.000000000000000000, 6.123233995736765296E-16, 0.1999999999999996503 ) ) ;
#106 = VECTOR ( 'NONE', #125, 1000.000000000000000 ) ;
#107 = PRESENTATION_STYLE_ASSIGNMENT (( #33 ) ) ;
#108 = ORIENTED_EDGE ( 'NONE', *, *, #80, .T. ) ;
#109 = AXIS2_PLACEMENT_3D ( 'NONE', #15, #84, #160 ) ;
#110 =( NAMED_UNIT ( * ) SI_UNIT ( $, .STERADIAN. ) SOLID_ANGLE_UNIT ( ) );
#111 = EDGE_CURVE ( 'NONE', #20, #189, #3, .T. ) ;
#112 =( NAMED_UNIT ( * ) PLANE_ANGLE_UNIT ( ) SI_UNIT ( $, .RADIAN. ) );
#113 = ORIENTED_EDGE ( 'NONE', *, *, #111, .T. ) ;
#114 = ORIENTED_EDGE ( 'NONE', *, *, #6, .T. ) ;
#115 = EDGE_LOOP ( 'NONE', ( #148, #231, #150, #39 ) ) ;
#116 = DIRECTION ( 'NONE',  ( 0.000000000000000000, 0.000000000000000000, -1.000000000000000000 ) ) ;
#117 = EDGE_LOOP ( 'NONE', ( #133, #226, #72, #89 ) ) ;
#118 = AXIS2_PLACEMENT_3D ( 'NONE', #157, #101, #32 ) ;
#119 = FACE_OUTER_BOUND ( 'NONE', #73, .T. ) ;
#120 = FILL_AREA_STYLE_COLOUR ( '', #214 ) ;
#121 = AXIS2_PLACEMENT_3D ( 'NONE', #38, #116, #190 ) ;
#122 = FACE_OUTER_BOUND ( 'NONE', #36, .T. ) ;
#123 = PRESENTATION_LAYER_ASSIGNMENT (  '', '', ( #55 ) ) ;
#124 = DIRECTION ( 'NONE',  ( 1.000000000000000000, 0.000000000000000000, 0.000000000000000000 ) ) ;
#125 = DIRECTION ( 'NONE',  ( 0.7071067811865490160, 0.000000000000000000, 0.7071067811865459074 ) ) ;
#126 = DIRECTION ( 'NONE',  ( 0.000000000000000000, 0.000000000000000000, -1.000000000000000000 ) ) ;
#127 =( GEOMETRIC_REPRESENTATION_CONTEXT ( 3 ) GLOBAL_UNCERTAINTY_ASSIGNED_CONTEXT ( ( #145 ) ) GLOBAL_UNIT_ASSIGNED_CONTEXT ( ( #162, #112, #110 ) ) REPRESENTATION_CONTEXT ( 'NONE', 'WORKASPACE' ) );
#128 = CARTESIAN_POINT ( 'NONE',  ( 0.000000000000000000, 0.000000000000000000, 0.000000000000000000 ) ) ;
#129 = ADVANCED_FACE ( 'NONE', ( #45 ), #178, .T. ) ;
#130 = AXIS2_PLACEMENT_3D ( 'NONE', #213, #143, #235 ) ;
#131 = AXIS2_PLACEMENT_3D ( 'NONE', #31, #104, #40 ) ;
#132 = ORIENTED_EDGE ( 'NONE', *, *, #180, .T. ) ;
#133 = ORIENTED_EDGE ( 'NONE', *, *, #80, .F. ) ;
#134 = EDGE_CURVE ( 'NONE', #59, #209, #161, .T. ) ;
#135 = CARTESIAN_POINT ( 'NONE',  ( -4.800000000000002487, 0.000000000000000000, 1.000000000000000000 ) ) ;
#136 = EDGE_CURVE ( 'NONE', #152, #56, #192, .T. ) ;
#137 = ORIENTED_EDGE ( 'NONE', *, *, #220, .F. ) ;
#138 = CARTESIAN_POINT ( 'NONE',  ( 0.000000000000000000, 0.000000000000000000, 0.1999999999999996503 ) ) ;
#139 = DIRECTION ( 'NONE',  ( -1.000000000000000000, 0.000000000000000000, 0.000000000000000000 ) ) ;
#140 = DIRECTION ( 'NONE',  ( 1.000000000000000000, 0.000000000000000000, 0.000000000000000000 ) ) ;
#141 = DIRECTION ( 'NONE',  ( 0.000000000000000000, 0.000000000000000000, 1.000000000000000000 ) ) ;
#142 = STYLED_ITEM ( 'NONE', ( #107 ), #223 ) ;
#143 = DIRECTION ( 'NONE',  ( -0.000000000000000000, -0.000000000000000000, 1.000000000000000000 ) ) ;
#144 = SURFACE_STYLE_FILL_AREA ( #194 ) ;
#145 = UNCERTAINTY_MEASURE_WITH_UNIT (LENGTH_MEASURE( 1.000000000000000082E-05 ), #162, 'distance_accuracy_value', 'NONE');
#146 = AXIS2_PLACEMENT_3D ( 'NONE', #8, #76, #77 ) ;
#147 = EDGE_LOOP ( 'NONE', ( #137, #188, #74, #2 ) ) ;
#148 = ORIENTED_EDGE ( 'NONE', *, *, #222, .F. ) ;
#149 = PRODUCT_DEFINITION ( 'Î´Öª', '', #218, #165 ) ;
#150 = ORIENTED_EDGE ( 'NONE', *, *, #136, .F. ) ;
#151 = ADVANCED_FACE ( 'NONE', ( #122 ), #197, .F. ) ;
#152 = VERTEX_POINT ( 'NONE', #196 ) ;
#153 = VECTOR ( 'NONE', #208, 1000.000000000000114 ) ;
#154 = CARTESIAN_POINT ( 'NONE',  ( 4.800000000000002487, 6.000769315822031726E-16, 1.000000000000000000 ) ) ;
#155 = APPLICATION_CONTEXT ( 'automotive_design' ) ;
#156 = DIRECTION ( 'NONE',  ( 0.000000000000000000, 0.000000000000000000, -1.000000000000000000 ) ) ;
#157 = CARTESIAN_POINT ( 'NONE',  ( 0.000000000000000000, 0.000000000000000000, 1.000000000000000000 ) ) ;
#158 = CARTESIAN_POINT ( 'NONE',  ( 5.000000000000000000, 6.123233995736766282E-16, 0.8000000000000012657 ) ) ;
#159 = MECHANICAL_DESIGN_GEOMETRIC_PRESENTATION_REPRESENTATION (  '', ( #142 ), #99 ) ;
#160 = DIRECTION ( 'NONE',  ( 1.000000000000000000, 0.000000000000000000, 0.000000000000000000 ) ) ;
#161 = CIRCLE ( 'NONE', #237, 4.800000000000002487 ) ;
#162 =( LENGTH_UNIT ( ) NAMED_UNIT ( * ) SI_UNIT ( .MILLI., .METRE. ) );
#163 =( NAMED_UNIT ( * ) SI_UNIT ( $, .STERADIAN. ) SOLID_ANGLE_UNIT ( ) );
#164 = COLOUR_RGB ( '',1.000000000000000000, 1.000000000000000000, 1.000000000000000000 ) ;
#165 = PRODUCT_DEFINITION_CONTEXT ( 'detailed design', #155, 'design' ) ;
#166 = DIRECTION ( 'NONE',  ( 1.000000000000000000, 0.000000000000000000, 0.000000000000000000 ) ) ;
#167 =( NAMED_UNIT ( * ) PLANE_ANGLE_UNIT ( ) SI_UNIT ( $, .RADIAN. ) );
#168 = ORIENTED_EDGE ( 'NONE', *, *, #6, .F. ) ;
#169 = AXIS2_PLACEMENT_3D ( 'NONE', #216, #232, #139 ) ;
#170 = ORIENTED_EDGE ( 'NONE', *, *, #65, .F. ) ;
#171 = ORIENTED_EDGE ( 'NONE', *, *, #24, .T. ) ;
#172 = CIRCLE ( 'NONE', #75, 4.799999999999999822 ) ;
#173 = SHAPE_DEFINITION_REPRESENTATION ( #233, #16 ) ;
#174 = FACE_OUTER_BOUND ( 'NONE', #115, .T. ) ;
#175 = CARTESIAN_POINT ( 'NONE',  ( 0.000000000000000000, 0.000000000000000000, 1.000000000000000000 ) ) ;
#176 = ADVANCED_FACE ( 'NONE', ( #119 ), #193, .T. ) ;
#177 = PRODUCT ( 'GNIF-140-7360-D10', 'GNIF-140-7360-D10', '', ( #70 ) ) ;
#178 = CYLINDRICAL_SURFACE ( 'NONE', #169, 5.000000000000000000 ) ;
#179 = DIRECTION ( 'NONE',  ( -0.000000000000000000, -0.000000000000000000, -1.000000000000000000 ) ) ;
#180 = EDGE_CURVE ( 'NONE', #20, #56, #27, .T. ) ;
#181 = DIRECTION ( 'NONE',  ( -0.7071067811865490160, 8.659560562354950115E-17, 0.7071067811865459074 ) ) ;
#182 = VECTOR ( 'NONE', #179, 1000.000000000000000 ) ;
#183 =( LENGTH_UNIT ( ) NAMED_UNIT ( * ) SI_UNIT ( .MILLI., .METRE. ) );
#184 = FILL_AREA_STYLE ('',( #221 ) ) ;
#185 = ADVANCED_FACE ( 'NONE', ( #212 ), #14, .T. ) ;
#186 = CONICAL_SURFACE ( 'NONE', #78, 5.000000000000000000, 0.7853981633974503884 ) ;
#187 = ORIENTED_EDGE ( 'NONE', *, *, #134, .T. ) ;
#188 = ORIENTED_EDGE ( 'NONE', *, *, #240, .F. ) ;
#189 = VERTEX_POINT ( 'NONE', #158 ) ;
#190 = DIRECTION ( 'NONE',  ( 1.000000000000000000, 0.000000000000000000, 0.000000000000000000 ) ) ;
#191 = ORIENTED_EDGE ( 'NONE', *, *, #134, .F. ) ;
#192 = CIRCLE ( 'NONE', #130, 5.000000000000000000 ) ;
#193 = PLANE ( 'NONE',  #85 ) ;
#194 = FILL_AREA_STYLE ('',( #120 ) ) ;
#195 = PRODUCT_RELATED_PRODUCT_CATEGORY ( 'part', '', ( #177 ) ) ;
#196 = CARTESIAN_POINT ( 'NONE',  ( 5.000000000000000000, 6.123233995736766282E-16, 0.1999999999999996503 ) ) ;
#197 = PLANE ( 'NONE',  #131 ) ;
#198 = FACE_OUTER_BOUND ( 'NONE', #117, .T. ) ;
#199 = SURFACE_SIDE_STYLE ('',( #144 ) ) ;
#200 = AXIS2_PLACEMENT_3D ( 'NONE', #82, #210, #238 ) ;
#201 =( NAMED_UNIT ( * ) PLANE_ANGLE_UNIT ( ) SI_UNIT ( $, .RADIAN. ) );
#202 = UNCERTAINTY_MEASURE_WITH_UNIT (LENGTH_MEASURE( 1.000000000000000082E-05 ), #87, 'distance_accuracy_value', 'NONE');
#203 = ADVANCED_FACE ( 'NONE', ( #198 ), #225, .T. ) ;
#204 = CIRCLE ( 'NONE', #146, 5.000000000000000000 ) ;
#205 = APPLICATION_PROTOCOL_DEFINITION ( 'draft international standard', 'automotive_design', 1998, #155 ) ;
#206 = ORIENTED_EDGE ( 'NONE', *, *, #9, .T. ) ;
#207 = ORIENTED_EDGE ( 'NONE', *, *, #240, .T. ) ;
#208 = DIRECTION ( 'NONE',  ( -0.7071067811865460184, 0.000000000000000000, -0.7071067811865489050 ) ) ;
#209 = VERTEX_POINT ( 'NONE', #154 ) ;
#210 = DIRECTION ( 'NONE',  ( -0.000000000000000000, -0.000000000000000000, 1.000000000000000000 ) ) ;
#211 = CONICAL_SURFACE ( 'NONE', #200, 5.000000000000000000, 0.7853981633974503884 ) ;
#212 = FACE_OUTER_BOUND ( 'NONE', #22, .T. ) ;
#213 = CARTESIAN_POINT ( 'NONE',  ( 0.000000000000000000, 0.000000000000000000, 0.1999999999999996503 ) ) ;
#214 = COLOUR_RGB ( '',1.000000000000000000, 1.000000000000000000, 1.000000000000000000 ) ;
#215 = DIRECTION ( 'NONE',  ( 1.000000000000000000, 0.000000000000000000, 0.000000000000000000 ) ) ;
#216 = CARTESIAN_POINT ( 'NONE',  ( 0.000000000000000000, 0.000000000000000000, 1.000000000000000000 ) ) ;
#217 = CIRCLE ( 'NONE', #121, 5.000000000000000000 ) ;
#218 = PRODUCT_DEFINITION_FORMATION_WITH_SPECIFIED_SOURCE ( 'ÈÎºÎ', '', #177, .NOT_KNOWN. ) ;
#219 = FACE_OUTER_BOUND ( 'NONE', #57, .T. ) ;
#220 = EDGE_CURVE ( 'NONE', #94, #56, #60, .T. ) ;
#221 = FILL_AREA_STYLE_COLOUR ( '', #164 ) ;
#222 = EDGE_CURVE ( 'NONE', #94, #25, #228, .T. ) ;
#223 = MANIFOLD_SOLID_BREP ( 'µ¹½Ç1', #88 ) ;
#224 = SURFACE_STYLE_USAGE ( .BOTH. , #86 ) ;
#225 = CONICAL_SURFACE ( 'NONE', #118, 4.800000000000002487, 0.7853981633974461696 ) ;
#226 = ORIENTED_EDGE ( 'NONE', *, *, #65, .T. ) ;
#227 = CARTESIAN_POINT ( 'NONE',  ( -5.000000000000000000, 0.000000000000000000, 0.8000000000000012657 ) ) ;
#228 = CIRCLE ( 'NONE', #109, 4.799999999999999822 ) ;
#229 = ADVANCED_FACE ( 'NONE', ( #219 ), #44, .T. ) ;
#230 = ORIENTED_EDGE ( 'NONE', *, *, #136, .T. ) ;
#231 = ORIENTED_EDGE ( 'NONE', *, *, #220, .T. ) ;
#232 = DIRECTION ( 'NONE',  ( -0.000000000000000000, -0.000000000000000000, -1.000000000000000000 ) ) ;
#233 = PRODUCT_DEFINITION_SHAPE ( 'NONE', 'NONE',  #149 ) ;
#234 = LINE ( 'NONE', #62, #41 ) ;
#235 = DIRECTION ( 'NONE',  ( 1.000000000000000000, 0.000000000000000000, 0.000000000000000000 ) ) ;
#236 = CARTESIAN_POINT ( 'NONE',  ( -5.000000000000000000, 0.000000000000000000, 1.000000000000000000 ) ) ;
#237 = AXIS2_PLACEMENT_3D ( 'NONE', #67, #11, #215 ) ;
#238 = DIRECTION ( 'NONE',  ( 1.000000000000000000, 0.000000000000000000, 0.000000000000000000 ) ) ;
#239 = DIRECTION ( 'NONE',  ( 0.000000000000000000, 0.000000000000000000, 1.000000000000000000 ) ) ;
#240 = EDGE_CURVE ( 'NONE', #25, #94, #172, .T. ) ;
ENDSEC;
END-ISO-10303-21;
