ISO-10303-21;
HEADER;
FILE_DESCRIPTION (( 'STEP AP214' ),
    '1' );
FILE_NAME ('218587.STEP',
    '2019-07-30T01:56:21',
    ( 'user' ),
    ( 'Î¢ÈíÖÐ¹ú' ),
    'SwSTEP 2.0',
    'SolidWorks 2016',
    '' );
FILE_SCHEMA (( 'AUTOMOTIVE_DESIGN' ));
ENDSEC;

DATA;
#1 =( NAMED_UNIT ( * ) SI_UNIT ( $, .STERADIAN. ) SOLID_ANGLE_UNIT ( ) );
#2 = CARTESIAN_POINT ( 'NONE',  ( 0.0000000000000000000, 2.000000000000000000, 0.0000000000000000000 ) ) ;
#3 = VECTOR ( 'NONE', #87, 1000.000000000000000 ) ;
#4 = DIRECTION ( 'NONE',  ( 0.0000000000000000000, 0.0000000000000000000, 1.000000000000000000 ) ) ;
#5 = CARTESIAN_POINT ( 'NONE',  ( 0.0000000000000000000, 2.000000000000000000, 0.0000000000000000000 ) ) ;
#6 = CIRCLE ( 'NONE', #80, 6.250000000000000000 ) ;
#7 = EDGE_CURVE ( 'NONE', #137, #74, #90, .T. ) ;
#8 = ORIENTED_EDGE ( 'NONE', *, *, #44, .T. ) ;
#9 = STYLED_ITEM ( 'NONE', ( #18 ), #113 ) ;
#10 = EDGE_LOOP ( 'NONE', ( #89, #48, #45, #8 ) ) ;
#11 = DIRECTION ( 'NONE',  ( 0.0000000000000000000, 0.0000000000000000000, 1.000000000000000000 ) ) ;
#12 =( NAMED_UNIT ( * ) PLANE_ANGLE_UNIT ( ) SI_UNIT ( $, .RADIAN. ) );
#13 =( LENGTH_UNIT ( ) NAMED_UNIT ( * ) SI_UNIT ( .MILLI., .METRE. ) );
#14 = VECTOR ( 'NONE', #36, 1000.000000000000000 ) ;
#15 = DIRECTION ( 'NONE',  ( 0.0000000000000000000, 0.0000000000000000000, 1.000000000000000000 ) ) ;
#16 = ORIENTED_EDGE ( 'NONE', *, *, #96, .T. ) ;
#17 = CARTESIAN_POINT ( 'NONE',  ( 0.0000000000000000000, 0.0000000000000000000, 0.0000000000000000000 ) ) ;
#18 = PRESENTATION_STYLE_ASSIGNMENT (( #91 ) ) ;
#19 = MECHANICAL_DESIGN_GEOMETRIC_PRESENTATION_REPRESENTATION (  '', ( #9 ), #65 ) ;
#20 = UNCERTAINTY_MEASURE_WITH_UNIT (LENGTH_MEASURE( 1.000000000000000100E-005 ), #13, 'distance_accuracy_value', 'NONE');
#21 = ORIENTED_EDGE ( 'NONE', *, *, #53, .F. ) ;
#22 =( NAMED_UNIT ( * ) SI_UNIT ( $, .STERADIAN. ) SOLID_ANGLE_UNIT ( ) );
#23 = SURFACE_SIDE_STYLE ('',( #71 ) ) ;
#24 = CYLINDRICAL_SURFACE ( 'NONE', #106, 6.250000000000000000 ) ;
#25 = SHAPE_DEFINITION_REPRESENTATION ( #86, #54 ) ;
#26 = CARTESIAN_POINT ( 'NONE',  ( 0.0000000000000000000, 0.0000000000000000000, 0.0000000000000000000 ) ) ;
#27 = CARTESIAN_POINT ( 'NONE',  ( 0.0000000000000000000, 0.0000000000000000000, -6.250000000000000000 ) ) ;
#28 = COLOUR_RGB ( '',1.000000000000000000, 1.000000000000000000, 1.000000000000000000 ) ;
#29 = ADVANCED_FACE ( 'NONE', ( #111 ), #93, .T. ) ;
#30 = CIRCLE ( 'NONE', #56, 6.250000000000000000 ) ;
#31 =( LENGTH_UNIT ( ) NAMED_UNIT ( * ) SI_UNIT ( .MILLI., .METRE. ) );
#32 =( LENGTH_UNIT ( ) NAMED_UNIT ( * ) SI_UNIT ( .MILLI., .METRE. ) );
#33 = PRESENTATION_STYLE_ASSIGNMENT (( #107 ) ) ;
#34 = EDGE_CURVE ( 'NONE', #137, #77, #63, .T. ) ;
#35 = UNCERTAINTY_MEASURE_WITH_UNIT (LENGTH_MEASURE( 1.000000000000000100E-005 ), #31, 'distance_accuracy_value', 'NONE');
#36 = DIRECTION ( 'NONE',  ( -0.0000000000000000000, -1.000000000000000000, -0.0000000000000000000 ) ) ;
#37 = FACE_OUTER_BOUND ( 'NONE', #99, .T. ) ;
#38 = AXIS2_PLACEMENT_3D ( 'NONE', #75, #135, #61 ) ;
#39 = CARTESIAN_POINT ( 'NONE',  ( 0.0000000000000000000, 2.000000000000000000, -6.250000000000000000 ) ) ;
#40 = ADVANCED_FACE ( 'NONE', ( #42 ), #124, .T. ) ;
#41 =( GEOMETRIC_REPRESENTATION_CONTEXT ( 3 ) GLOBAL_UNCERTAINTY_ASSIGNED_CONTEXT ( ( #35 ) ) GLOBAL_UNIT_ASSIGNED_CONTEXT ( ( #31, #101, #22 ) ) REPRESENTATION_CONTEXT ( 'NONE', 'WORKASPACE' ) );
#42 = FACE_OUTER_BOUND ( 'NONE', #67, .T. ) ;
#43 = PRODUCT_DEFINITION_FORMATION_WITH_SPECIFIED_SOURCE ( 'ÈÎºÎ', '', #130, .NOT_KNOWN. ) ;
#44 = EDGE_CURVE ( 'NONE', #74, #76, #114, .T. ) ;
#45 = ORIENTED_EDGE ( 'NONE', *, *, #7, .T. ) ;
#46 = SURFACE_SIDE_STYLE ('',( #123 ) ) ;
#47 = DIRECTION ( 'NONE',  ( 0.0000000000000000000, -0.0000000000000000000, 1.000000000000000000 ) ) ;
#48 = ORIENTED_EDGE ( 'NONE', *, *, #34, .F. ) ;
#49 = PRESENTATION_LAYER_ASSIGNMENT (  '', '', ( #9 ) ) ;
#50 = DIRECTION ( 'NONE',  ( 0.0000000000000000000, 1.000000000000000000, 0.0000000000000000000 ) ) ;
#51 = DIRECTION ( 'NONE',  ( 0.0000000000000000000, -0.0000000000000000000, 1.000000000000000000 ) ) ;
#52 = PRESENTATION_LAYER_ASSIGNMENT (  '', '', ( #115 ) ) ;
#53 = EDGE_CURVE ( 'NONE', #77, #137, #30, .T. ) ;
#54 = ADVANCED_BREP_SHAPE_REPRESENTATION ( '218587', ( #113, #133 ), #108 ) ;
#55 = FACE_OUTER_BOUND ( 'NONE', #104, .T. ) ;
#56 = AXIS2_PLACEMENT_3D ( 'NONE', #120, #50, #110 ) ;
#57 = APPLICATION_CONTEXT ( 'automotive_design' ) ;
#58 = FILL_AREA_STYLE_COLOUR ( '', #66 ) ;
#59 = PLANE ( 'NONE',  #98 ) ;
#60 = CARTESIAN_POINT ( 'NONE',  ( 7.654042494670957600E-016, 0.0000000000000000000, 6.250000000000000000 ) ) ;
#61 = DIRECTION ( 'NONE',  ( 0.0000000000000000000, 0.0000000000000000000, 1.000000000000000000 ) ) ;
#62 = DIRECTION ( 'NONE',  ( 0.0000000000000000000, 0.0000000000000000000, -1.000000000000000000 ) ) ;
#63 = CIRCLE ( 'NONE', #38, 6.250000000000000000 ) ;
#64 = AXIS2_PLACEMENT_3D ( 'NONE', #17, #85, #4 ) ;
#65 =( GEOMETRIC_REPRESENTATION_CONTEXT ( 3 ) GLOBAL_UNCERTAINTY_ASSIGNED_CONTEXT ( ( #20 ) ) GLOBAL_UNIT_ASSIGNED_CONTEXT ( ( #13, #83, #1 ) ) REPRESENTATION_CONTEXT ( 'NONE', 'WORKASPACE' ) );
#66 = COLOUR_RGB ( '',1.000000000000000000, 1.000000000000000000, 1.000000000000000000 ) ;
#67 = EDGE_LOOP ( 'NONE', ( #79, #127 ) ) ;
#68 = APPLICATION_CONTEXT ( 'automotive_design' ) ;
#69 = PRODUCT_RELATED_PRODUCT_CATEGORY ( 'part', '', ( #130 ) ) ;
#70 = APPLICATION_PROTOCOL_DEFINITION ( 'draft international standard', 'automotive_design', 1998, #57 ) ;
#71 = SURFACE_STYLE_FILL_AREA ( #103 ) ;
#72 = DIRECTION ( 'NONE',  ( 0.0000000000000000000, 0.0000000000000000000, -1.000000000000000000 ) ) ;
#73 = EDGE_CURVE ( 'NONE', #76, #74, #6, .T. ) ;
#74 = VERTEX_POINT ( 'NONE', #27 ) ;
#75 = CARTESIAN_POINT ( 'NONE',  ( 0.0000000000000000000, 2.000000000000000000, 0.0000000000000000000 ) ) ;
#76 = VERTEX_POINT ( 'NONE', #60 ) ;
#77 = VERTEX_POINT ( 'NONE', #84 ) ;
#78 = UNCERTAINTY_MEASURE_WITH_UNIT (LENGTH_MEASURE( 1.000000000000000100E-005 ), #32, 'distance_accuracy_value', 'NONE');
#79 = ORIENTED_EDGE ( 'NONE', *, *, #34, .T. ) ;
#80 = AXIS2_PLACEMENT_3D ( 'NONE', #26, #92, #15 ) ;
#81 = DIRECTION ( 'NONE',  ( 1.000000000000000000, 0.0000000000000000000, 0.0000000000000000000 ) ) ;
#82 =( NAMED_UNIT ( * ) SI_UNIT ( $, .STERADIAN. ) SOLID_ANGLE_UNIT ( ) );
#83 =( NAMED_UNIT ( * ) PLANE_ANGLE_UNIT ( ) SI_UNIT ( $, .RADIAN. ) );
#84 = CARTESIAN_POINT ( 'NONE',  ( 7.654042494670957600E-016, 2.000000000000000000, 6.250000000000000000 ) ) ;
#85 = DIRECTION ( 'NONE',  ( 0.0000000000000000000, 1.000000000000000000, 0.0000000000000000000 ) ) ;
#86 = PRODUCT_DEFINITION_SHAPE ( 'NONE', 'NONE',  #126 ) ;
#87 = DIRECTION ( 'NONE',  ( -0.0000000000000000000, -1.000000000000000000, -0.0000000000000000000 ) ) ;
#88 = ADVANCED_FACE ( 'NONE', ( #37 ), #24, .T. ) ;
#89 = ORIENTED_EDGE ( 'NONE', *, *, #96, .F. ) ;
#90 = LINE ( 'NONE', #39, #3 ) ;
#91 = SURFACE_STYLE_USAGE ( .BOTH. , #23 ) ;
#92 = DIRECTION ( 'NONE',  ( 0.0000000000000000000, 1.000000000000000000, 0.0000000000000000000 ) ) ;
#93 = CYLINDRICAL_SURFACE ( 'NONE', #100, 6.250000000000000000 ) ;
#94 = AXIS2_PLACEMENT_3D ( 'NONE', #5, #121, #51 ) ;
#95 = CLOSED_SHELL ( 'NONE', ( #88, #29, #40, #125 ) ) ;
#96 = EDGE_CURVE ( 'NONE', #77, #76, #122, .T. ) ;
#97 = ORIENTED_EDGE ( 'NONE', *, *, #44, .F. ) ;
#98 = AXIS2_PLACEMENT_3D ( 'NONE', #131, #117, #47 ) ;
#99 = EDGE_LOOP ( 'NONE', ( #21, #16, #128, #119 ) ) ;
#100 = AXIS2_PLACEMENT_3D ( 'NONE', #112, #136, #62 ) ;
#101 =( NAMED_UNIT ( * ) PLANE_ANGLE_UNIT ( ) SI_UNIT ( $, .RADIAN. ) );
#102 = CARTESIAN_POINT ( 'NONE',  ( 0.0000000000000000000, 0.0000000000000000000, 0.0000000000000000000 ) ) ;
#103 = FILL_AREA_STYLE ('',( #109 ) ) ;
#104 = EDGE_LOOP ( 'NONE', ( #97, #134 ) ) ;
#105 = DIRECTION ( 'NONE',  ( -0.0000000000000000000, -1.000000000000000000, -0.0000000000000000000 ) ) ;
#106 = AXIS2_PLACEMENT_3D ( 'NONE', #2, #105, #72 ) ;
#107 = SURFACE_STYLE_USAGE ( .BOTH. , #46 ) ;
#108 =( GEOMETRIC_REPRESENTATION_CONTEXT ( 3 ) GLOBAL_UNCERTAINTY_ASSIGNED_CONTEXT ( ( #78 ) ) GLOBAL_UNIT_ASSIGNED_CONTEXT ( ( #32, #12, #82 ) ) REPRESENTATION_CONTEXT ( 'NONE', 'WORKASPACE' ) );
#109 = FILL_AREA_STYLE_COLOUR ( '', #28 ) ;
#110 = DIRECTION ( 'NONE',  ( 0.0000000000000000000, 0.0000000000000000000, 1.000000000000000000 ) ) ;
#111 = FACE_OUTER_BOUND ( 'NONE', #10, .T. ) ;
#112 = CARTESIAN_POINT ( 'NONE',  ( 0.0000000000000000000, 2.000000000000000000, 0.0000000000000000000 ) ) ;
#113 = MANIFOLD_SOLID_BREP ( 'Í¹Ì¨-À­Éì1', #95 ) ;
#114 = CIRCLE ( 'NONE', #64, 6.250000000000000000 ) ;
#115 = STYLED_ITEM ( 'NONE', ( #33 ), #54 ) ;
#116 = FILL_AREA_STYLE ('',( #58 ) ) ;
#117 = DIRECTION ( 'NONE',  ( 0.0000000000000000000, 1.000000000000000000, 0.0000000000000000000 ) ) ;
#118 = CARTESIAN_POINT ( 'NONE',  ( 0.0000000000000000000, 2.000000000000000000, -6.250000000000000000 ) ) ;
#119 = ORIENTED_EDGE ( 'NONE', *, *, #7, .F. ) ;
#120 = CARTESIAN_POINT ( 'NONE',  ( 0.0000000000000000000, 2.000000000000000000, 0.0000000000000000000 ) ) ;
#121 = DIRECTION ( 'NONE',  ( 0.0000000000000000000, 1.000000000000000000, 0.0000000000000000000 ) ) ;
#122 = LINE ( 'NONE', #132, #14 ) ;
#123 = SURFACE_STYLE_FILL_AREA ( #116 ) ;
#124 = PLANE ( 'NONE',  #94 ) ;
#125 = ADVANCED_FACE ( 'NONE', ( #55 ), #59, .F. ) ;
#126 = PRODUCT_DEFINITION ( 'Î´Öª', '', #43, #140 ) ;
#127 = ORIENTED_EDGE ( 'NONE', *, *, #53, .T. ) ;
#128 = ORIENTED_EDGE ( 'NONE', *, *, #73, .T. ) ;
#129 = APPLICATION_PROTOCOL_DEFINITION ( 'draft international standard', 'automotive_design', 1998, #68 ) ;
#130 = PRODUCT ( '218587', '218587', '', ( #139 ) ) ;
#131 = CARTESIAN_POINT ( 'NONE',  ( 0.0000000000000000000, 0.0000000000000000000, 0.0000000000000000000 ) ) ;
#132 = CARTESIAN_POINT ( 'NONE',  ( 7.654042494670957600E-016, 2.000000000000000000, 6.250000000000000000 ) ) ;
#133 = AXIS2_PLACEMENT_3D ( 'NONE', #102, #11, #81 ) ;
#134 = ORIENTED_EDGE ( 'NONE', *, *, #73, .F. ) ;
#135 = DIRECTION ( 'NONE',  ( 0.0000000000000000000, 1.000000000000000000, 0.0000000000000000000 ) ) ;
#136 = DIRECTION ( 'NONE',  ( -0.0000000000000000000, -1.000000000000000000, -0.0000000000000000000 ) ) ;
#137 = VERTEX_POINT ( 'NONE', #118 ) ;
#138 = MECHANICAL_DESIGN_GEOMETRIC_PRESENTATION_REPRESENTATION (  '', ( #115 ), #41 ) ;
#139 = PRODUCT_CONTEXT ( 'NONE', #57, 'mechanical' ) ;
#140 = PRODUCT_DEFINITION_CONTEXT ( 'detailed design', #68, 'design' ) ;
ENDSEC;
END-ISO-10303-21;
