ISO-10303-21;
HEADER;
FILE_DESCRIPTION (( 'STEP AP214' ),
    '1' );
FILE_NAME ('248607.STEP',
    '2019-08-06T05:43:59',
    ( 'user' ),
    ( 'Î¢ÈíÖÐ¹ú' ),
    'SwSTEP 2.0',
    'SolidWorks 2016',
    '' );
FILE_SCHEMA (( 'AUTOMOTIVE_DESIGN' ));
ENDSEC;

DATA;
#1 = COLOUR_RGB ( '',1.000000000000000000, 1.000000000000000000, 1.000000000000000000 ) ;
#2 = PRODUCT_RELATED_PRODUCT_CATEGORY ( 'part', '', ( #45 ) ) ;
#3 = ORIENTED_EDGE ( 'NONE', *, *, #89, .T. ) ;
#4 = ADVANCED_FACE ( 'NONE', ( #140 ), #93, .T. ) ;
#5 = FILL_AREA_STYLE ('',( #33 ) ) ;
#6 = AXIS2_PLACEMENT_3D ( 'NONE', #120, #21, #50 ) ;
#7 = AXIS2_PLACEMENT_3D ( 'NONE', #86, #26, #138 ) ;
#8 = PRODUCT_DEFINITION ( 'Î´Öª', '', #79, #32 ) ;
#9 = LINE ( 'NONE', #28, #57 ) ;
#10 = MECHANICAL_DESIGN_GEOMETRIC_PRESENTATION_REPRESENTATION (  '', ( #130 ), #25 ) ;
#11 = CIRCLE ( 'NONE', #107, 25.00000000000000000 ) ;
#12 = DIRECTION ( 'NONE',  ( 0.0000000000000000000, 0.0000000000000000000, 1.000000000000000000 ) ) ;
#13 = CARTESIAN_POINT ( 'NONE',  ( 0.0000000000000000000, 0.0000000000000000000, -25.00000000000000000 ) ) ;
#14 = PRODUCT_CONTEXT ( 'NONE', #111, 'mechanical' ) ;
#15 = DIRECTION ( 'NONE',  ( 0.0000000000000000000, -0.0000000000000000000, 1.000000000000000000 ) ) ;
#16 = CARTESIAN_POINT ( 'NONE',  ( 0.0000000000000000000, 1.250000000000000000, 0.0000000000000000000 ) ) ;
#17 = VERTEX_POINT ( 'NONE', #62 ) ;
#18 = PRODUCT_DEFINITION_SHAPE ( 'NONE', 'NONE',  #8 ) ;
#19 = AXIS2_PLACEMENT_3D ( 'NONE', #99, #121, #43 ) ;
#20 = EDGE_LOOP ( 'NONE', ( #67, #46, #3, #29 ) ) ;
#21 = DIRECTION ( 'NONE',  ( 0.0000000000000000000, 0.0000000000000000000, 1.000000000000000000 ) ) ;
#22 = ORIENTED_EDGE ( 'NONE', *, *, #97, .T. ) ;
#23 = SURFACE_STYLE_FILL_AREA ( #110 ) ;
#24 = DIRECTION ( 'NONE',  ( 0.0000000000000000000, 1.000000000000000000, 0.0000000000000000000 ) ) ;
#25 =( GEOMETRIC_REPRESENTATION_CONTEXT ( 3 ) GLOBAL_UNCERTAINTY_ASSIGNED_CONTEXT ( ( #91 ) ) GLOBAL_UNIT_ASSIGNED_CONTEXT ( ( #27, #35, #117 ) ) REPRESENTATION_CONTEXT ( 'NONE', 'WORKASPACE' ) );
#26 = DIRECTION ( 'NONE',  ( -0.0000000000000000000, -1.000000000000000000, -0.0000000000000000000 ) ) ;
#27 =( LENGTH_UNIT ( ) NAMED_UNIT ( * ) SI_UNIT ( .MILLI., .METRE. ) );
#28 = CARTESIAN_POINT ( 'NONE',  ( 3.061616997868383000E-015, 1.250000000000000000, 25.00000000000000000 ) ) ;
#29 = ORIENTED_EDGE ( 'NONE', *, *, #114, .T. ) ;
#30 = PRESENTATION_LAYER_ASSIGNMENT (  '', '', ( #130 ) ) ;
#31 = ORIENTED_EDGE ( 'NONE', *, *, #70, .T. ) ;
#32 = PRODUCT_DEFINITION_CONTEXT ( 'detailed design', #52, 'design' ) ;
#33 = FILL_AREA_STYLE_COLOUR ( '', #132 ) ;
#34 =( LENGTH_UNIT ( ) NAMED_UNIT ( * ) SI_UNIT ( .MILLI., .METRE. ) );
#35 =( NAMED_UNIT ( * ) PLANE_ANGLE_UNIT ( ) SI_UNIT ( $, .RADIAN. ) );
#36 = ADVANCED_FACE ( 'NONE', ( #65 ), #37, .T. ) ;
#37 = CYLINDRICAL_SURFACE ( 'NONE', #7, 25.00000000000000000 ) ;
#38 = STYLED_ITEM ( 'NONE', ( #48 ), #61 ) ;
#39 = FACE_OUTER_BOUND ( 'NONE', #84, .T. ) ;
#40 = ORIENTED_EDGE ( 'NONE', *, *, #83, .T. ) ;
#41 = CARTESIAN_POINT ( 'NONE',  ( 3.061616997868383000E-015, 1.250000000000000000, 25.00000000000000000 ) ) ;
#42 = DIRECTION ( 'NONE',  ( 0.0000000000000000000, -0.0000000000000000000, 1.000000000000000000 ) ) ;
#43 = DIRECTION ( 'NONE',  ( 0.0000000000000000000, 0.0000000000000000000, -1.000000000000000000 ) ) ;
#44 = VERTEX_POINT ( 'NONE', #13 ) ;
#45 = PRODUCT ( '248607', '248607', '', ( #14 ) ) ;
#46 = ORIENTED_EDGE ( 'NONE', *, *, #122, .F. ) ;
#47 = SURFACE_SIDE_STYLE ('',( #23 ) ) ;
#48 = PRESENTATION_STYLE_ASSIGNMENT (( #126 ) ) ;
#49 = ORIENTED_EDGE ( 'NONE', *, *, #70, .F. ) ;
#50 = DIRECTION ( 'NONE',  ( 1.000000000000000000, 0.0000000000000000000, 0.0000000000000000000 ) ) ;
#51 = DIRECTION ( 'NONE',  ( -0.0000000000000000000, -1.000000000000000000, -0.0000000000000000000 ) ) ;
#52 = APPLICATION_CONTEXT ( 'automotive_design' ) ;
#53 = SURFACE_STYLE_USAGE ( .BOTH. , #47 ) ;
#54 = CLOSED_SHELL ( 'NONE', ( #36, #4, #124, #56 ) ) ;
#55 = LINE ( 'NONE', #95, #118 ) ;
#56 = ADVANCED_FACE ( 'NONE', ( #39 ), #78, .F. ) ;
#57 = VECTOR ( 'NONE', #51, 1000.000000000000000 ) ;
#58 = DIRECTION ( 'NONE',  ( 0.0000000000000000000, 1.000000000000000000, 0.0000000000000000000 ) ) ;
#59 = CIRCLE ( 'NONE', #125, 25.00000000000000000 ) ;
#60 = CARTESIAN_POINT ( 'NONE',  ( 0.0000000000000000000, 1.250000000000000000, 0.0000000000000000000 ) ) ;
#61 = MANIFOLD_SOLID_BREP ( 'Í¹Ì¨-À­Éì1', #54 ) ;
#62 = CARTESIAN_POINT ( 'NONE',  ( 3.061616997868383000E-015, 0.0000000000000000000, 25.00000000000000000 ) ) ;
#63 =( NAMED_UNIT ( * ) PLANE_ANGLE_UNIT ( ) SI_UNIT ( $, .RADIAN. ) );
#64 = CIRCLE ( 'NONE', #85, 25.00000000000000000 ) ;
#65 = FACE_OUTER_BOUND ( 'NONE', #100, .T. ) ;
#66 = PRESENTATION_LAYER_ASSIGNMENT (  '', '', ( #38 ) ) ;
#67 = ORIENTED_EDGE ( 'NONE', *, *, #83, .F. ) ;
#68 = CARTESIAN_POINT ( 'NONE',  ( 0.0000000000000000000, 1.250000000000000000, 0.0000000000000000000 ) ) ;
#69 = DIRECTION ( 'NONE',  ( 0.0000000000000000000, 1.000000000000000000, 0.0000000000000000000 ) ) ;
#70 = EDGE_CURVE ( 'NONE', #82, #105, #59, .T. ) ;
#71 = PLANE ( 'NONE',  #104 ) ;
#72 = ORIENTED_EDGE ( 'NONE', *, *, #89, .F. ) ;
#73 =( LENGTH_UNIT ( ) NAMED_UNIT ( * ) SI_UNIT ( .MILLI., .METRE. ) );
#74 = PRESENTATION_STYLE_ASSIGNMENT (( #53 ) ) ;
#75 = MECHANICAL_DESIGN_GEOMETRIC_PRESENTATION_REPRESENTATION (  '', ( #38 ), #115 ) ;
#76 = CARTESIAN_POINT ( 'NONE',  ( 0.0000000000000000000, 1.250000000000000000, -25.00000000000000000 ) ) ;
#77 = SHAPE_DEFINITION_REPRESENTATION ( #18, #108 ) ;
#78 = PLANE ( 'NONE',  #101 ) ;
#79 = PRODUCT_DEFINITION_FORMATION_WITH_SPECIFIED_SOURCE ( 'ÈÎºÎ', '', #45, .NOT_KNOWN. ) ;
#80 = DIRECTION ( 'NONE',  ( -0.0000000000000000000, -1.000000000000000000, -0.0000000000000000000 ) ) ;
#81 = DIRECTION ( 'NONE',  ( 0.0000000000000000000, 1.000000000000000000, 0.0000000000000000000 ) ) ;
#82 = VERTEX_POINT ( 'NONE', #41 ) ;
#83 = EDGE_CURVE ( 'NONE', #82, #17, #9, .T. ) ;
#84 = EDGE_LOOP ( 'NONE', ( #106, #133 ) ) ;
#85 = AXIS2_PLACEMENT_3D ( 'NONE', #94, #24, #12 ) ;
#86 = CARTESIAN_POINT ( 'NONE',  ( 0.0000000000000000000, 1.250000000000000000, 0.0000000000000000000 ) ) ;
#87 =( NAMED_UNIT ( * ) PLANE_ANGLE_UNIT ( ) SI_UNIT ( $, .RADIAN. ) );
#88 = DIRECTION ( 'NONE',  ( 0.0000000000000000000, 1.000000000000000000, 0.0000000000000000000 ) ) ;
#89 = EDGE_CURVE ( 'NONE', #105, #44, #55, .T. ) ;
#90 = AXIS2_PLACEMENT_3D ( 'NONE', #60, #102, #98 ) ;
#91 = UNCERTAINTY_MEASURE_WITH_UNIT (LENGTH_MEASURE( 1.000000000000000100E-005 ), #27, 'distance_accuracy_value', 'NONE');
#92 = FACE_OUTER_BOUND ( 'NONE', #137, .T. ) ;
#93 = CYLINDRICAL_SURFACE ( 'NONE', #19, 25.00000000000000000 ) ;
#94 = CARTESIAN_POINT ( 'NONE',  ( 0.0000000000000000000, 0.0000000000000000000, 0.0000000000000000000 ) ) ;
#95 = CARTESIAN_POINT ( 'NONE',  ( 0.0000000000000000000, 1.250000000000000000, -25.00000000000000000 ) ) ;
#96 =( NAMED_UNIT ( * ) SI_UNIT ( $, .STERADIAN. ) SOLID_ANGLE_UNIT ( ) );
#97 = EDGE_CURVE ( 'NONE', #17, #44, #64, .T. ) ;
#98 = DIRECTION ( 'NONE',  ( 0.0000000000000000000, 0.0000000000000000000, 1.000000000000000000 ) ) ;
#99 = CARTESIAN_POINT ( 'NONE',  ( 0.0000000000000000000, 1.250000000000000000, 0.0000000000000000000 ) ) ;
#100 = EDGE_LOOP ( 'NONE', ( #49, #40, #22, #72 ) ) ;
#101 = AXIS2_PLACEMENT_3D ( 'NONE', #128, #81, #15 ) ;
#102 = DIRECTION ( 'NONE',  ( 0.0000000000000000000, 1.000000000000000000, 0.0000000000000000000 ) ) ;
#103 = APPLICATION_PROTOCOL_DEFINITION ( 'draft international standard', 'automotive_design', 1998, #52 ) ;
#104 = AXIS2_PLACEMENT_3D ( 'NONE', #16, #58, #42 ) ;
#105 = VERTEX_POINT ( 'NONE', #76 ) ;
#106 = ORIENTED_EDGE ( 'NONE', *, *, #114, .F. ) ;
#107 = AXIS2_PLACEMENT_3D ( 'NONE', #113, #69, #135 ) ;
#108 = ADVANCED_BREP_SHAPE_REPRESENTATION ( '248607', ( #61, #6 ), #136 ) ;
#109 = APPLICATION_PROTOCOL_DEFINITION ( 'draft international standard', 'automotive_design', 1998, #111 ) ;
#110 = FILL_AREA_STYLE ('',( #127 ) ) ;
#111 = APPLICATION_CONTEXT ( 'automotive_design' ) ;
#112 = SURFACE_SIDE_STYLE ('',( #123 ) ) ;
#113 = CARTESIAN_POINT ( 'NONE',  ( 0.0000000000000000000, 0.0000000000000000000, 0.0000000000000000000 ) ) ;
#114 = EDGE_CURVE ( 'NONE', #44, #17, #11, .T. ) ;
#115 =( GEOMETRIC_REPRESENTATION_CONTEXT ( 3 ) GLOBAL_UNCERTAINTY_ASSIGNED_CONTEXT ( ( #139 ) ) GLOBAL_UNIT_ASSIGNED_CONTEXT ( ( #73, #63, #96 ) ) REPRESENTATION_CONTEXT ( 'NONE', 'WORKASPACE' ) );
#116 = ORIENTED_EDGE ( 'NONE', *, *, #122, .T. ) ;
#117 =( NAMED_UNIT ( * ) SI_UNIT ( $, .STERADIAN. ) SOLID_ANGLE_UNIT ( ) );
#118 = VECTOR ( 'NONE', #80, 1000.000000000000000 ) ;
#119 = UNCERTAINTY_MEASURE_WITH_UNIT (LENGTH_MEASURE( 1.000000000000000100E-005 ), #34, 'distance_accuracy_value', 'NONE');
#120 = CARTESIAN_POINT ( 'NONE',  ( 0.0000000000000000000, 0.0000000000000000000, 0.0000000000000000000 ) ) ;
#121 = DIRECTION ( 'NONE',  ( -0.0000000000000000000, -1.000000000000000000, -0.0000000000000000000 ) ) ;
#122 = EDGE_CURVE ( 'NONE', #105, #82, #131, .T. ) ;
#123 = SURFACE_STYLE_FILL_AREA ( #5 ) ;
#124 = ADVANCED_FACE ( 'NONE', ( #92 ), #71, .T. ) ;
#125 = AXIS2_PLACEMENT_3D ( 'NONE', #68, #88, #134 ) ;
#126 = SURFACE_STYLE_USAGE ( .BOTH. , #112 ) ;
#127 = FILL_AREA_STYLE_COLOUR ( '', #1 ) ;
#128 = CARTESIAN_POINT ( 'NONE',  ( 0.0000000000000000000, 0.0000000000000000000, 0.0000000000000000000 ) ) ;
#129 =( NAMED_UNIT ( * ) SI_UNIT ( $, .STERADIAN. ) SOLID_ANGLE_UNIT ( ) );
#130 = STYLED_ITEM ( 'NONE', ( #74 ), #108 ) ;
#131 = CIRCLE ( 'NONE', #90, 25.00000000000000000 ) ;
#132 = COLOUR_RGB ( '',1.000000000000000000, 1.000000000000000000, 1.000000000000000000 ) ;
#133 = ORIENTED_EDGE ( 'NONE', *, *, #97, .F. ) ;
#134 = DIRECTION ( 'NONE',  ( 0.0000000000000000000, 0.0000000000000000000, 1.000000000000000000 ) ) ;
#135 = DIRECTION ( 'NONE',  ( 0.0000000000000000000, 0.0000000000000000000, 1.000000000000000000 ) ) ;
#136 =( GEOMETRIC_REPRESENTATION_CONTEXT ( 3 ) GLOBAL_UNCERTAINTY_ASSIGNED_CONTEXT ( ( #119 ) ) GLOBAL_UNIT_ASSIGNED_CONTEXT ( ( #34, #87, #129 ) ) REPRESENTATION_CONTEXT ( 'NONE', 'WORKASPACE' ) );
#137 = EDGE_LOOP ( 'NONE', ( #116, #31 ) ) ;
#138 = DIRECTION ( 'NONE',  ( 0.0000000000000000000, 0.0000000000000000000, -1.000000000000000000 ) ) ;
#139 = UNCERTAINTY_MEASURE_WITH_UNIT (LENGTH_MEASURE( 1.000000000000000100E-005 ), #73, 'distance_accuracy_value', 'NONE');
#140 = FACE_OUTER_BOUND ( 'NONE', #20, .T. ) ;
ENDSEC;
END-ISO-10303-21;
