ISO-10303-21;
HEADER;
FILE_DESCRIPTION (( 'STEP AP214' ),
    '1' );
FILE_NAME ('100003.STEP',
    '2019-04-18T09:37:12',
    ( '' ),
    ( '' ),
    'SwSTEP 2.0',
    'SolidWorks 2016',
    '' );
FILE_SCHEMA (( 'AUTOMOTIVE_DESIGN' ));
ENDSEC;

DATA;
#1 = CARTESIAN_POINT ( 'NONE',  ( 526.5312330267424800, 148.1307689401504600, -2.000000000000001800 ) ) ;
#2 = EDGE_CURVE ( 'NONE', #176, #44, #71, .T. ) ;
#3 = DIRECTION ( 'NONE',  ( 0.0000000000000000000, 1.000000000000000000, 1.224646799147348500E-016 ) ) ;
#4 = CARTESIAN_POINT ( 'NONE',  ( 526.5312330267424800, 148.1307689401504600, 0.0000000000000000000 ) ) ;
#5 = ORIENTED_EDGE ( 'NONE', *, *, #24, .T. ) ;
#6 = SURFACE_SIDE_STYLE ('',( #23 ) ) ;
#7 = DIRECTION ( 'NONE',  ( 0.0000000000000000000, 1.000000000000000000, 0.0000000000000000000 ) ) ;
#8 = EDGE_CURVE ( 'NONE', #76, #160, #138, .T. ) ;
#9 = ORIENTED_EDGE ( 'NONE', *, *, #114, .T. ) ;
#10 = ADVANCED_FACE ( 'NONE', ( #101 ), #165, .T. ) ;
#11 = AXIS2_PLACEMENT_3D ( 'NONE', #62, #107, #13 ) ;
#12 = CLOSED_SHELL ( 'NONE', ( #10, #167, #25, #92, #118 ) ) ;
#13 = DIRECTION ( 'NONE',  ( 0.0000000000000000000, 0.0000000000000000000, 1.000000000000000000 ) ) ;
#14 = CIRCLE ( 'NONE', #11, 2.000000000000001800 ) ;
#15 = PLANE ( 'NONE',  #79 ) ;
#16 = CARTESIAN_POINT ( 'NONE',  ( 527.5412330267424700, 148.1307689401504600, 0.0000000000000000000 ) ) ;
#17 = SPHERICAL_SURFACE ( 'NONE', #131, 3.243550724637655100 ) ;
#18 = CARTESIAN_POINT ( 'NONE',  ( 525.9012605883726800, 148.1307689401504600, 2.000000000000001800 ) ) ;
#19 =( NAMED_UNIT ( * ) SI_UNIT ( $, .STERADIAN. ) SOLID_ANGLE_UNIT ( ) );
#20 = PRESENTATION_LAYER_ASSIGNMENT (  '', '', ( #41 ) ) ;
#21 = DIRECTION ( 'NONE',  ( -1.000000000000000000, -0.0000000000000000000, -0.0000000000000000000 ) ) ;
#22 =( NAMED_UNIT ( * ) SI_UNIT ( $, .STERADIAN. ) SOLID_ANGLE_UNIT ( ) );
#23 = SURFACE_STYLE_FILL_AREA ( #103 ) ;
#24 = EDGE_CURVE ( 'NONE', #74, #176, #117, .T. ) ;
#25 = ADVANCED_FACE ( 'NONE', ( #28 ), #108, .T. ) ;
#26 = ORIENTED_EDGE ( 'NONE', *, *, #2, .T. ) ;
#27 = AXIS2_PLACEMENT_3D ( 'NONE', #33, #56, #70 ) ;
#28 = FACE_OUTER_BOUND ( 'NONE', #42, .T. ) ;
#29 = EDGE_CURVE ( 'NONE', #181, #44, #127, .T. ) ;
#30 = DIRECTION ( 'NONE',  ( 0.0000000000000000000, 0.0000000000000000000, 1.000000000000000000 ) ) ;
#31 = AXIS2_PLACEMENT_3D ( 'NONE', #186, #51, #49 ) ;
#32 = DIRECTION ( 'NONE',  ( 0.0000000000000000000, 0.0000000000000000000, 1.000000000000000000 ) ) ;
#33 = CARTESIAN_POINT ( 'NONE',  ( 0.0000000000000000000, 0.0000000000000000000, 0.0000000000000000000 ) ) ;
#34 = CARTESIAN_POINT ( 'NONE',  ( 525.9012605883726800, 148.1307689401504600, -2.000000000000001800 ) ) ;
#35 = UNCERTAINTY_MEASURE_WITH_UNIT (LENGTH_MEASURE( 1.000000000000000100E-005 ), #68, 'distance_accuracy_value', 'NONE');
#36 = APPLICATION_CONTEXT ( 'automotive_design' ) ;
#37 = LINE ( 'NONE', #18, #87 ) ;
#38 = SURFACE_STYLE_USAGE ( .BOTH. , #141 ) ;
#39 = EDGE_LOOP ( 'NONE', ( #170, #120, #182, #152 ) ) ;
#40 = CARTESIAN_POINT ( 'NONE',  ( 525.9012605883726800, 148.1307689401504600, 0.0000000000000000000 ) ) ;
#41 = STYLED_ITEM ( 'NONE', ( #155 ), #82 ) ;
#42 = EDGE_LOOP ( 'NONE', ( #81, #119, #5, #109, #128 ) ) ;
#43 = AXIS2_PLACEMENT_3D ( 'NONE', #112, #164, #3 ) ;
#44 = VERTEX_POINT ( 'NONE', #64 ) ;
#45 = AXIS2_PLACEMENT_3D ( 'NONE', #171, #80, #48 ) ;
#46 = UNCERTAINTY_MEASURE_WITH_UNIT (LENGTH_MEASURE( 1.000000000000000100E-005 ), #84, 'distance_accuracy_value', 'NONE');
#47 = LINE ( 'NONE', #34, #174 ) ;
#48 = DIRECTION ( 'NONE',  ( 0.0000000000000000000, 1.000000000000000000, 0.0000000000000000000 ) ) ;
#49 = DIRECTION ( 'NONE',  ( 0.0000000000000000000, 0.0000000000000000000, 1.000000000000000000 ) ) ;
#50 = DIRECTION ( 'NONE',  ( -0.0000000000000000000, 0.0000000000000000000, 1.000000000000000000 ) ) ;
#51 = DIRECTION ( 'NONE',  ( -1.000000000000000000, -0.0000000000000000000, -0.0000000000000000000 ) ) ;
#52 = DIRECTION ( 'NONE',  ( 0.0000000000000000000, 0.0000000000000000000, 1.000000000000000000 ) ) ;
#53 = DIRECTION ( 'NONE',  ( -1.000000000000000000, -0.0000000000000000000, -0.0000000000000000000 ) ) ;
#54 = SHAPE_DEFINITION_REPRESENTATION ( #129, #178 ) ;
#55 =( GEOMETRIC_REPRESENTATION_CONTEXT ( 3 ) GLOBAL_UNCERTAINTY_ASSIGNED_CONTEXT ( ( #35 ) ) GLOBAL_UNIT_ASSIGNED_CONTEXT ( ( #68, #125, #19 ) ) REPRESENTATION_CONTEXT ( 'NONE', 'WORKASPACE' ) );
#56 = DIRECTION ( 'NONE',  ( 0.0000000000000000000, 0.0000000000000000000, 1.000000000000000000 ) ) ;
#57 = CARTESIAN_POINT ( 'NONE',  ( 527.5412330267424700, 148.1307689401504600, 0.0000000000000000000 ) ) ;
#58 = ORIENTED_EDGE ( 'NONE', *, *, #169, .T. ) ;
#59 = AXIS2_PLACEMENT_3D ( 'NONE', #148, #158, #30 ) ;
#60 = AXIS2_PLACEMENT_3D ( 'NONE', #16, #78, #52 ) ;
#61 = CARTESIAN_POINT ( 'NONE',  ( 525.9012605883726800, 148.1307689401504600, 0.0000000000000000000 ) ) ;
#62 = CARTESIAN_POINT ( 'NONE',  ( 527.5412330267424700, 148.1307689401504600, 0.0000000000000000000 ) ) ;
#63 = COLOUR_RGB ( '',1.000000000000000000, 1.000000000000000000, 1.000000000000000000 ) ;
#64 = CARTESIAN_POINT ( 'NONE',  ( 527.5412330267424700, 150.1307689401504900, 0.0000000000000000000 ) ) ;
#65 = DIRECTION ( 'NONE',  ( 1.000000000000000000, 0.0000000000000000000, 0.0000000000000000000 ) ) ;
#66 = AXIS2_PLACEMENT_3D ( 'NONE', #61, #157, #32 ) ;
#67 = CYLINDRICAL_SURFACE ( 'NONE', #116, 2.000000000000001800 ) ;
#68 =( LENGTH_UNIT ( ) NAMED_UNIT ( * ) SI_UNIT ( .MILLI., .METRE. ) );
#69 = FILL_AREA_STYLE_COLOUR ( '', #63 ) ;
#70 = DIRECTION ( 'NONE',  ( 1.000000000000000000, 0.0000000000000000000, 0.0000000000000000000 ) ) ;
#71 = CIRCLE ( 'NONE', #59, 2.000000000000001800 ) ;
#72 = ORIENTED_EDGE ( 'NONE', *, *, #166, .T. ) ;
#73 = EDGE_CURVE ( 'NONE', #180, #74, #14, .T. ) ;
#74 = VERTEX_POINT ( 'NONE', #137 ) ;
#75 = MECHANICAL_DESIGN_GEOMETRIC_PRESENTATION_REPRESENTATION (  '', ( #41 ), #121 ) ;
#76 = VERTEX_POINT ( 'NONE', #1 ) ;
#77 = ORIENTED_EDGE ( 'NONE', *, *, #29, .F. ) ;
#78 = DIRECTION ( 'NONE',  ( -1.000000000000000000, -0.0000000000000000000, -0.0000000000000000000 ) ) ;
#79 = AXIS2_PLACEMENT_3D ( 'NONE', #90, #151, #175 ) ;
#80 = DIRECTION ( 'NONE',  ( -0.0000000000000000000, 0.0000000000000000000, -1.000000000000000000 ) ) ;
#81 = ORIENTED_EDGE ( 'NONE', *, *, #169, .F. ) ;
#82 = MANIFOLD_SOLID_BREP ( 'Ðý×ª1', #12 ) ;
#83 = DIRECTION ( 'NONE',  ( -0.0000000000000000000, 0.0000000000000000000, -1.000000000000000000 ) ) ;
#84 =( LENGTH_UNIT ( ) NAMED_UNIT ( * ) SI_UNIT ( .MILLI., .METRE. ) );
#85 = PRODUCT_RELATED_PRODUCT_CATEGORY ( 'part', '', ( #111 ) ) ;
#86 = CARTESIAN_POINT ( 'NONE',  ( 528.2312330267425300, 148.1307689401504000, 0.0000000000000000000 ) ) ;
#87 = VECTOR ( 'NONE', #102, 1000.000000000000000 ) ;
#88 = DIRECTION ( 'NONE',  ( 0.0000000000000000000, 0.0000000000000000000, 1.000000000000000000 ) ) ;
#89 = ORIENTED_EDGE ( 'NONE', *, *, #73, .F. ) ;
#90 = CARTESIAN_POINT ( 'NONE',  ( 526.5312330267424800, 150.1307689401504600, 0.0000000000000000000 ) ) ;
#91 = AXIS2_PLACEMENT_3D ( 'NONE', #57, #161, #149 ) ;
#92 = ADVANCED_FACE ( 'NONE', ( #130 ), #15, .F. ) ;
#93 = FACE_OUTER_BOUND ( 'NONE', #39, .T. ) ;
#94 = PRESENTATION_STYLE_ASSIGNMENT (( #123 ) ) ;
#95 = ORIENTED_EDGE ( 'NONE', *, *, #166, .F. ) ;
#96 = CIRCLE ( 'NONE', #99, 2.000000000000001800 ) ;
#97 = EDGE_CURVE ( 'NONE', #176, #160, #37, .T. ) ;
#98 = ORIENTED_EDGE ( 'NONE', *, *, #8, .T. ) ;
#99 = AXIS2_PLACEMENT_3D ( 'NONE', #4, #126, #162 ) ;
#100 =( NAMED_UNIT ( * ) SI_UNIT ( $, .STERADIAN. ) SOLID_ANGLE_UNIT ( ) );
#101 = FACE_OUTER_BOUND ( 'NONE', #135, .T. ) ;
#102 = DIRECTION ( 'NONE',  ( -1.000000000000000000, -0.0000000000000000000, -0.0000000000000000000 ) ) ;
#103 = FILL_AREA_STYLE ('',( #69 ) ) ;
#104 = CARTESIAN_POINT ( 'NONE',  ( 526.5312330267424800, 148.1307689401504600, 2.000000000000001800 ) ) ;
#105 = PRODUCT_DEFINITION ( 'Î´Öª', '', #110, #183 ) ;
#106 = STYLED_ITEM ( 'NONE', ( #94 ), #178 ) ;
#107 = DIRECTION ( 'NONE',  ( -1.000000000000000000, -0.0000000000000000000, -0.0000000000000000000 ) ) ;
#108 = CYLINDRICAL_SURFACE ( 'NONE', #66, 2.000000000000001800 ) ;
#109 = ORIENTED_EDGE ( 'NONE', *, *, #97, .T. ) ;
#110 = PRODUCT_DEFINITION_FORMATION_WITH_SPECIFIED_SOURCE ( 'ÈÎºÎ', '', #111, .NOT_KNOWN. ) ;
#111 = PRODUCT ( '100003', '100003', '', ( #143 ) ) ;
#112 = CARTESIAN_POINT ( 'NONE',  ( 524.9876823021048700, 148.1307689401504000, 0.0000000000000000000 ) ) ;
#113 =( LENGTH_UNIT ( ) NAMED_UNIT ( * ) SI_UNIT ( .MILLI., .METRE. ) );
#114 = EDGE_CURVE ( 'NONE', #44, #180, #124, .T. ) ;
#115 = ORIENTED_EDGE ( 'NONE', *, *, #114, .F. ) ;
#116 = AXIS2_PLACEMENT_3D ( 'NONE', #40, #53, #88 ) ;
#117 = CIRCLE ( 'NONE', #60, 2.000000000000001800 ) ;
#118 = ADVANCED_FACE ( 'NONE', ( #93 ), #17, .T. ) ;
#119 = ORIENTED_EDGE ( 'NONE', *, *, #73, .T. ) ;
#120 = ORIENTED_EDGE ( 'NONE', *, *, #29, .T. ) ;
#121 =( GEOMETRIC_REPRESENTATION_CONTEXT ( 3 ) GLOBAL_UNCERTAINTY_ASSIGNED_CONTEXT ( ( #46 ) ) GLOBAL_UNIT_ASSIGNED_CONTEXT ( ( #84, #173, #100 ) ) REPRESENTATION_CONTEXT ( 'NONE', 'WORKASPACE' ) );
#122 = EDGE_CURVE ( 'NONE', #181, #74, #134, .T. ) ;
#123 = SURFACE_STYLE_USAGE ( .BOTH. , #6 ) ;
#124 = CIRCLE ( 'NONE', #91, 2.000000000000001800 ) ;
#125 =( NAMED_UNIT ( * ) PLANE_ANGLE_UNIT ( ) SI_UNIT ( $, .RADIAN. ) );
#126 = DIRECTION ( 'NONE',  ( -1.000000000000000000, -0.0000000000000000000, -0.0000000000000000000 ) ) ;
#127 = CIRCLE ( 'NONE', #185, 3.243550724637667100 ) ;
#128 = ORIENTED_EDGE ( 'NONE', *, *, #8, .F. ) ;
#129 = PRODUCT_DEFINITION_SHAPE ( 'NONE', 'NONE',  #105 ) ;
#130 = FACE_OUTER_BOUND ( 'NONE', #142, .T. ) ;
#131 = AXIS2_PLACEMENT_3D ( 'NONE', #163, #83, #7 ) ;
#132 = COLOUR_RGB ( '',1.000000000000000000, 1.000000000000000000, 1.000000000000000000 ) ;
#133 = FILL_AREA_STYLE ('',( #145 ) ) ;
#134 = CIRCLE ( 'NONE', #43, 3.243550724637667100 ) ;
#135 = EDGE_LOOP ( 'NONE', ( #77, #146, #89, #115 ) ) ;
#136 = CARTESIAN_POINT ( 'NONE',  ( 524.9876823021048700, 148.1307689401504000, 0.0000000000000000000 ) ) ;
#137 = CARTESIAN_POINT ( 'NONE',  ( 527.5412330267424700, 146.1307689401503800, -2.449293598294723200E-016 ) ) ;
#138 = CIRCLE ( 'NONE', #31, 2.000000000000001800 ) ;
#139 = APPLICATION_PROTOCOL_DEFINITION ( 'draft international standard', 'automotive_design', 1998, #36 ) ;
#140 = PRESENTATION_LAYER_ASSIGNMENT (  '', '', ( #106 ) ) ;
#141 = SURFACE_SIDE_STYLE ('',( #168 ) ) ;
#142 = EDGE_LOOP ( 'NONE', ( #72, #98 ) ) ;
#143 = PRODUCT_CONTEXT ( 'NONE', #36, 'mechanical' ) ;
#144 = EDGE_LOOP ( 'NONE', ( #26, #9, #58, #95, #177 ) ) ;
#145 = FILL_AREA_STYLE_COLOUR ( '', #132 ) ;
#146 = ORIENTED_EDGE ( 'NONE', *, *, #122, .T. ) ;
#147 = MECHANICAL_DESIGN_GEOMETRIC_PRESENTATION_REPRESENTATION (  '', ( #106 ), #156 ) ;
#148 = CARTESIAN_POINT ( 'NONE',  ( 527.5412330267424700, 148.1307689401504600, 0.0000000000000000000 ) ) ;
#149 = DIRECTION ( 'NONE',  ( 0.0000000000000000000, 0.0000000000000000000, 1.000000000000000000 ) ) ;
#150 = CARTESIAN_POINT ( 'NONE',  ( 527.5412330267424700, 148.1307689401504600, 2.000000000000001800 ) ) ;
#151 = DIRECTION ( 'NONE',  ( 1.000000000000000000, 0.0000000000000000000, 0.0000000000000000000 ) ) ;
#152 = ORIENTED_EDGE ( 'NONE', *, *, #24, .F. ) ;
#153 =( NAMED_UNIT ( * ) PLANE_ANGLE_UNIT ( ) SI_UNIT ( $, .RADIAN. ) );
#154 = APPLICATION_PROTOCOL_DEFINITION ( 'draft international standard', 'automotive_design', 1998, #179 ) ;
#155 = PRESENTATION_STYLE_ASSIGNMENT (( #38 ) ) ;
#156 =( GEOMETRIC_REPRESENTATION_CONTEXT ( 3 ) GLOBAL_UNCERTAINTY_ASSIGNED_CONTEXT ( ( #184 ) ) GLOBAL_UNIT_ASSIGNED_CONTEXT ( ( #113, #153, #22 ) ) REPRESENTATION_CONTEXT ( 'NONE', 'WORKASPACE' ) );
#157 = DIRECTION ( 'NONE',  ( -1.000000000000000000, -0.0000000000000000000, -0.0000000000000000000 ) ) ;
#158 = DIRECTION ( 'NONE',  ( -1.000000000000000000, -0.0000000000000000000, -0.0000000000000000000 ) ) ;
#159 = FACE_OUTER_BOUND ( 'NONE', #144, .T. ) ;
#160 = VERTEX_POINT ( 'NONE', #104 ) ;
#161 = DIRECTION ( 'NONE',  ( -1.000000000000000000, -0.0000000000000000000, -0.0000000000000000000 ) ) ;
#162 = DIRECTION ( 'NONE',  ( 0.0000000000000000000, 0.0000000000000000000, 1.000000000000000000 ) ) ;
#163 = CARTESIAN_POINT ( 'NONE',  ( 524.9876823021048700, 148.1307689401504000, 0.0000000000000000000 ) ) ;
#164 = DIRECTION ( 'NONE',  ( 0.0000000000000000000, 1.224646799147353200E-016, -1.000000000000000000 ) ) ;
#165 = SPHERICAL_SURFACE ( 'NONE', #45, 3.243550724637655100 ) ;
#166 = EDGE_CURVE ( 'NONE', #160, #76, #96, .T. ) ;
#167 = ADVANCED_FACE ( 'NONE', ( #159 ), #67, .T. ) ;
#168 = SURFACE_STYLE_FILL_AREA ( #133 ) ;
#169 = EDGE_CURVE ( 'NONE', #180, #76, #47, .T. ) ;
#170 = ORIENTED_EDGE ( 'NONE', *, *, #122, .F. ) ;
#171 = CARTESIAN_POINT ( 'NONE',  ( 524.9876823021048700, 148.1307689401504000, 0.0000000000000000000 ) ) ;
#172 = CARTESIAN_POINT ( 'NONE',  ( 527.5412330267424700, 148.1307689401504600, -2.000000000000001800 ) ) ;
#173 =( NAMED_UNIT ( * ) PLANE_ANGLE_UNIT ( ) SI_UNIT ( $, .RADIAN. ) );
#174 = VECTOR ( 'NONE', #21, 1000.000000000000000 ) ;
#175 = DIRECTION ( 'NONE',  ( 0.0000000000000000000, 0.0000000000000000000, -1.000000000000000000 ) ) ;
#176 = VERTEX_POINT ( 'NONE', #150 ) ;
#177 = ORIENTED_EDGE ( 'NONE', *, *, #97, .F. ) ;
#178 = ADVANCED_BREP_SHAPE_REPRESENTATION ( '100003', ( #82, #27 ), #55 ) ;
#179 = APPLICATION_CONTEXT ( 'automotive_design' ) ;
#180 = VERTEX_POINT ( 'NONE', #172 ) ;
#181 = VERTEX_POINT ( 'NONE', #86 ) ;
#182 = ORIENTED_EDGE ( 'NONE', *, *, #2, .F. ) ;
#183 = PRODUCT_DEFINITION_CONTEXT ( 'detailed design', #179, 'design' ) ;
#184 = UNCERTAINTY_MEASURE_WITH_UNIT (LENGTH_MEASURE( 1.000000000000000100E-005 ), #113, 'distance_accuracy_value', 'NONE');
#185 = AXIS2_PLACEMENT_3D ( 'NONE', #136, #50, #65 ) ;
#186 = CARTESIAN_POINT ( 'NONE',  ( 526.5312330267424800, 148.1307689401504600, 0.0000000000000000000 ) ) ;
ENDSEC;
END-ISO-10303-21;
