ISO-10303-21;
HEADER;
FILE_DESCRIPTION (( 'STEP AP214' ),
    '1' );
FILE_NAME ('100006.STEP',
    '2019-04-19T05:33:29',
    ( '' ),
    ( '' ),
    'SwSTEP 2.0',
    'SolidWorks 2016',
    '' );
FILE_SCHEMA (( 'AUTOMOTIVE_DESIGN' ));
ENDSEC;

DATA;
#1 = DIRECTION ( 'NONE',  ( 8.811293846231420300E-015, -1.000000000000000000, 0.0000000000000000000 ) ) ;
#2 = AXIS2_PLACEMENT_3D ( 'NONE', #52, #145, #42 ) ;
#3 = SHAPE_DEFINITION_REPRESENTATION ( #156, #60 ) ;
#4 = LINE ( 'NONE', #7, #151 ) ;
#5 = CARTESIAN_POINT ( 'NONE',  ( 93.20650659411116100, 31.68248448665640600, 3.857637417314156300E-016 ) ) ;
#6 = DIRECTION ( 'NONE',  ( -1.000000000000000000, -9.340818716798274300E-015, -0.0000000000000000000 ) ) ;
#7 = CARTESIAN_POINT ( 'NONE',  ( 93.20650659411119000, 25.38248448665641300, 0.0000000000000000000 ) ) ;
#8 = AXIS2_PLACEMENT_3D ( 'NONE', #149, #95, #119 ) ;
#9 = ADVANCED_FACE ( 'NONE', ( #133 ), #84, .T. ) ;
#10 = CYLINDRICAL_SURFACE ( 'NONE', #166, 3.149999999999993200 ) ;
#11 = EDGE_LOOP ( 'NONE', ( #63, #143, #85 ) ) ;
#12 = EDGE_LOOP ( 'NONE', ( #112, #22, #105, #117 ) ) ;
#13 = PRODUCT_CONTEXT ( 'NONE', #153, 'mechanical' ) ;
#14 =( LENGTH_UNIT ( ) NAMED_UNIT ( * ) SI_UNIT ( .MILLI., .METRE. ) );
#15 = CIRCLE ( 'NONE', #73, 4.128116438356144600 ) ;
#16 =( LENGTH_UNIT ( ) NAMED_UNIT ( * ) SI_UNIT ( .MILLI., .METRE. ) );
#17 = AXIS2_PLACEMENT_3D ( 'NONE', #64, #163, #147 ) ;
#18 = DIRECTION ( 'NONE',  ( -9.340818716798274300E-015, 1.000000000000000000, 0.0000000000000000000 ) ) ;
#19 = ORIENTED_EDGE ( 'NONE', *, *, #93, .F. ) ;
#20 = AXIS2_PLACEMENT_3D ( 'NONE', #107, #160, #98 ) ;
#21 = PRODUCT_RELATED_PRODUCT_CATEGORY ( 'part', '', ( #146 ) ) ;
#22 = ORIENTED_EDGE ( 'NONE', *, *, #108, .T. ) ;
#23 = VERTEX_POINT ( 'NONE', #65 ) ;
#24 = FILL_AREA_STYLE_COLOUR ( '', #139 ) ;
#25 = DIRECTION ( 'NONE',  ( 1.008531712831777000E-014, -1.000000000000000000, 0.0000000000000000000 ) ) ;
#26 = PLANE ( 'NONE',  #155 ) ;
#27 = CIRCLE ( 'NONE', #20, 3.149999999999989700 ) ;
#28 = MECHANICAL_DESIGN_GEOMETRIC_PRESENTATION_REPRESENTATION (  '', ( #70 ), #76 ) ;
#29 = UNCERTAINTY_MEASURE_WITH_UNIT (LENGTH_MEASURE( 1.000000000000000100E-005 ), #14, 'distance_accuracy_value', 'NONE');
#30 = ADVANCED_FACE ( 'NONE', ( #54 ), #26, .F. ) ;
#31 =( GEOMETRIC_REPRESENTATION_CONTEXT ( 3 ) GLOBAL_UNCERTAINTY_ASSIGNED_CONTEXT ( ( #29 ) ) GLOBAL_UNIT_ASSIGNED_CONTEXT ( ( #14, #92, #104 ) ) REPRESENTATION_CONTEXT ( 'NONE', 'WORKASPACE' ) );
#32 = SURFACE_STYLE_USAGE ( .BOTH. , #45 ) ;
#33 = DIRECTION ( 'NONE',  ( 0.0000000000000000000, 0.0000000000000000000, 1.000000000000000000 ) ) ;
#34 = EDGE_CURVE ( 'NONE', #161, #23, #80, .T. ) ;
#35 = VERTEX_POINT ( 'NONE', #157 ) ;
#36 = DIRECTION ( 'NONE',  ( -1.000000000000000000, -9.340818716798274300E-015, -0.0000000000000000000 ) ) ;
#37 = FACE_OUTER_BOUND ( 'NONE', #94, .T. ) ;
#38 =( GEOMETRIC_REPRESENTATION_CONTEXT ( 3 ) GLOBAL_UNCERTAINTY_ASSIGNED_CONTEXT ( ( #56 ) ) GLOBAL_UNIT_ASSIGNED_CONTEXT ( ( #16, #58, #137 ) ) REPRESENTATION_CONTEXT ( 'NONE', 'WORKASPACE' ) );
#39 = UNCERTAINTY_MEASURE_WITH_UNIT (LENGTH_MEASURE( 1.000000000000000100E-005 ), #154, 'distance_accuracy_value', 'NONE');
#40 = DIRECTION ( 'NONE',  ( -1.000000000000000000, -9.340818716798274300E-015, -0.0000000000000000000 ) ) ;
#41 = FILL_AREA_STYLE_COLOUR ( '', #159 ) ;
#42 = DIRECTION ( 'NONE',  ( 8.811293846231420300E-015, -1.000000000000000000, 0.0000000000000000000 ) ) ;
#43 = AXIS2_PLACEMENT_3D ( 'NONE', #118, #72, #83 ) ;
#44 = FACE_OUTER_BOUND ( 'NONE', #12, .T. ) ;
#45 = SURFACE_SIDE_STYLE ('',( #109 ) ) ;
#46 = APPLICATION_CONTEXT ( 'automotive_design' ) ;
#47 = EDGE_CURVE ( 'NONE', #23, #138, #136, .T. ) ;
#48 = EDGE_LOOP ( 'NONE', ( #19, #55, #124 ) ) ;
#49 = CARTESIAN_POINT ( 'NONE',  ( 91.67839015575499700, 28.53248448665640800, 0.0000000000000000000 ) ) ;
#50 = VERTEX_POINT ( 'NONE', #59 ) ;
#51 = ORIENTED_EDGE ( 'NONE', *, *, #34, .T. ) ;
#52 = CARTESIAN_POINT ( 'NONE',  ( 93.20650659411116100, 28.53248448665640800, 0.0000000000000000000 ) ) ;
#53 = EDGE_LOOP ( 'NONE', ( #144, #67 ) ) ;
#54 = FACE_OUTER_BOUND ( 'NONE', #53, .T. ) ;
#55 = ORIENTED_EDGE ( 'NONE', *, *, #97, .T. ) ;
#56 = UNCERTAINTY_MEASURE_WITH_UNIT (LENGTH_MEASURE( 1.000000000000000100E-005 ), #16, 'distance_accuracy_value', 'NONE');
#57 =( NAMED_UNIT ( * ) SI_UNIT ( $, .STERADIAN. ) SOLID_ANGLE_UNIT ( ) );
#58 =( NAMED_UNIT ( * ) PLANE_ANGLE_UNIT ( ) SI_UNIT ( $, .RADIAN. ) );
#59 = CARTESIAN_POINT ( 'NONE',  ( 95.80650659411114100, 28.53248448665644300, 0.0000000000000000000 ) ) ;
#60 = ADVANCED_BREP_SHAPE_REPRESENTATION ( '100006', ( #140, #158 ), #38 ) ;
#61 = DIRECTION ( 'NONE',  ( 0.0000000000000000000, 0.0000000000000000000, -1.000000000000000000 ) ) ;
#62 = AXIS2_PLACEMENT_3D ( 'NONE', #74, #164, #101 ) ;
#63 = ORIENTED_EDGE ( 'NONE', *, *, #97, .F. ) ;
#64 = CARTESIAN_POINT ( 'NONE',  ( 93.20650659411119000, 28.53248448665640800, 0.0000000000000000000 ) ) ;
#65 = CARTESIAN_POINT ( 'NONE',  ( 94.34650659411111900, 31.68248448665640600, 3.857637417314135100E-016 ) ) ;
#66 = EDGE_CURVE ( 'NONE', #138, #35, #115, .T. ) ;
#67 = ORIENTED_EDGE ( 'NONE', *, *, #66, .T. ) ;
#68 = FACE_OUTER_BOUND ( 'NONE', #11, .T. ) ;
#69 = CARTESIAN_POINT ( 'NONE',  ( 93.20650659411116100, 28.53248448665640800, 0.0000000000000000000 ) ) ;
#70 = STYLED_ITEM ( 'NONE', ( #120 ), #140 ) ;
#71 = DIRECTION ( 'NONE',  ( -1.000000000000000000, 0.0000000000000000000, 0.0000000000000000000 ) ) ;
#72 = DIRECTION ( 'NONE',  ( -1.000000000000000000, -9.340818716798274300E-015, -0.0000000000000000000 ) ) ;
#73 = AXIS2_PLACEMENT_3D ( 'NONE', #49, #61, #71 ) ;
#74 = CARTESIAN_POINT ( 'NONE',  ( 91.67839015575499700, 28.53248448665640800, 0.0000000000000000000 ) ) ;
#75 = ORIENTED_EDGE ( 'NONE', *, *, #103, .F. ) ;
#76 =( GEOMETRIC_REPRESENTATION_CONTEXT ( 3 ) GLOBAL_UNCERTAINTY_ASSIGNED_CONTEXT ( ( #39 ) ) GLOBAL_UNIT_ASSIGNED_CONTEXT ( ( #154, #81, #57 ) ) REPRESENTATION_CONTEXT ( 'NONE', 'WORKASPACE' ) );
#77 = AXIS2_PLACEMENT_3D ( 'NONE', #162, #122, #25 ) ;
#78 = CARTESIAN_POINT ( 'NONE',  ( 0.0000000000000000000, 0.0000000000000000000, 0.0000000000000000000 ) ) ;
#79 = DIRECTION ( 'NONE',  ( -1.000000000000000000, -9.340818716798274300E-015, -0.0000000000000000000 ) ) ;
#80 = CIRCLE ( 'NONE', #43, 3.149999999999989700 ) ;
#81 =( NAMED_UNIT ( * ) PLANE_ANGLE_UNIT ( ) SI_UNIT ( $, .RADIAN. ) );
#82 = CLOSED_SHELL ( 'NONE', ( #134, #9, #110, #165, #30 ) ) ;
#83 = DIRECTION ( 'NONE',  ( 8.811293846231429800E-015, -1.000000000000000000, 0.0000000000000000000 ) ) ;
#84 = SPHERICAL_SURFACE ( 'NONE', #62, 4.128116438356142800 ) ;
#85 = ORIENTED_EDGE ( 'NONE', *, *, #108, .F. ) ;
#86 = DIRECTION ( 'NONE',  ( 8.811293846231401400E-015, -1.000000000000000000, 0.0000000000000000000 ) ) ;
#87 = FILL_AREA_STYLE ('',( #41 ) ) ;
#88 = DIRECTION ( 'NONE',  ( 1.000000000000000000, 9.340818716798274300E-015, 0.0000000000000000000 ) ) ;
#89 = CARTESIAN_POINT ( 'NONE',  ( 93.20650659411117500, 28.53248448665640800, 0.0000000000000000000 ) ) ;
#90 = AXIS2_PLACEMENT_3D ( 'NONE', #106, #40, #86 ) ;
#91 = SURFACE_STYLE_FILL_AREA ( #87 ) ;
#92 =( NAMED_UNIT ( * ) PLANE_ANGLE_UNIT ( ) SI_UNIT ( $, .RADIAN. ) );
#93 = EDGE_CURVE ( 'NONE', #50, #161, #15, .T. ) ;
#94 = EDGE_LOOP ( 'NONE', ( #51, #113, #152, #75 ) ) ;
#95 = DIRECTION ( 'NONE',  ( 1.143920374294269400E-030, -1.224646799147353200E-016, 1.000000000000000000 ) ) ;
#96 = CYLINDRICAL_SURFACE ( 'NONE', #2, 3.149999999999993200 ) ;
#97 = EDGE_CURVE ( 'NONE', #50, #23, #142, .T. ) ;
#98 = DIRECTION ( 'NONE',  ( 8.811293846231429800E-015, -1.000000000000000000, 0.0000000000000000000 ) ) ;
#99 = FILL_AREA_STYLE ('',( #24 ) ) ;
#100 = SURFACE_SIDE_STYLE ('',( #91 ) ) ;
#101 = DIRECTION ( 'NONE',  ( 1.008531712831777000E-014, -1.000000000000000000, 0.0000000000000000000 ) ) ;
#102 = MECHANICAL_DESIGN_GEOMETRIC_PRESENTATION_REPRESENTATION (  '', ( #121 ), #31 ) ;
#103 = EDGE_CURVE ( 'NONE', #161, #35, #4, .T. ) ;
#104 =( NAMED_UNIT ( * ) SI_UNIT ( $, .STERADIAN. ) SOLID_ANGLE_UNIT ( ) );
#105 = ORIENTED_EDGE ( 'NONE', *, *, #103, .T. ) ;
#106 = CARTESIAN_POINT ( 'NONE',  ( 93.20650659411119000, 28.53248448665640800, 0.0000000000000000000 ) ) ;
#107 = CARTESIAN_POINT ( 'NONE',  ( 94.34650659411114800, 28.53248448665641800, 0.0000000000000000000 ) ) ;
#108 = EDGE_CURVE ( 'NONE', #23, #161, #27, .T. ) ;
#109 = SURFACE_STYLE_FILL_AREA ( #99 ) ;
#110 = ADVANCED_FACE ( 'NONE', ( #68 ), #123, .T. ) ;
#111 = VECTOR ( 'NONE', #36, 1000.000000000000000 ) ;
#112 = ORIENTED_EDGE ( 'NONE', *, *, #47, .F. ) ;
#113 = ORIENTED_EDGE ( 'NONE', *, *, #47, .T. ) ;
#114 = DIRECTION ( 'NONE',  ( 1.000000000000000000, 0.0000000000000000000, 0.0000000000000000000 ) ) ;
#115 = CIRCLE ( 'NONE', #17, 3.149999999999999900 ) ;
#116 = APPLICATION_PROTOCOL_DEFINITION ( 'draft international standard', 'automotive_design', 1998, #153 ) ;
#117 = ORIENTED_EDGE ( 'NONE', *, *, #66, .F. ) ;
#118 = CARTESIAN_POINT ( 'NONE',  ( 94.34650659411114800, 28.53248448665641800, 0.0000000000000000000 ) ) ;
#119 = DIRECTION ( 'NONE',  ( 0.0000000000000000000, -1.000000000000000000, -1.224646799147352500E-016 ) ) ;
#120 = PRESENTATION_STYLE_ASSIGNMENT (( #148 ) ) ;
#121 = STYLED_ITEM ( 'NONE', ( #135 ), #60 ) ;
#122 = DIRECTION ( 'NONE',  ( -0.0000000000000000000, 0.0000000000000000000, 1.000000000000000000 ) ) ;
#123 = SPHERICAL_SURFACE ( 'NONE', #77, 4.128116438356142800 ) ;
#124 = ORIENTED_EDGE ( 'NONE', *, *, #34, .F. ) ;
#125 = CIRCLE ( 'NONE', #90, 3.149999999999999900 ) ;
#126 = APPLICATION_PROTOCOL_DEFINITION ( 'draft international standard', 'automotive_design', 1998, #46 ) ;
#127 = CARTESIAN_POINT ( 'NONE',  ( 94.34650659411117600, 25.38248448665644100, 0.0000000000000000000 ) ) ;
#128 = EDGE_CURVE ( 'NONE', #35, #138, #125, .T. ) ;
#129 = CARTESIAN_POINT ( 'NONE',  ( 93.20650659411113300, 31.68248448665639900, 3.857637417314156300E-016 ) ) ;
#130 = PRODUCT_DEFINITION_FORMATION_WITH_SPECIFIED_SOURCE ( 'ÈÎºÎ', '', #146, .NOT_KNOWN. ) ;
#131 = PRODUCT_DEFINITION_CONTEXT ( 'detailed design', #46, 'design' ) ;
#132 = PRESENTATION_LAYER_ASSIGNMENT (  '', '', ( #70 ) ) ;
#133 = FACE_OUTER_BOUND ( 'NONE', #48, .T. ) ;
#134 = ADVANCED_FACE ( 'NONE', ( #37 ), #96, .T. ) ;
#135 = PRESENTATION_STYLE_ASSIGNMENT (( #32 ) ) ;
#136 = LINE ( 'NONE', #129, #111 ) ;
#137 =( NAMED_UNIT ( * ) SI_UNIT ( $, .STERADIAN. ) SOLID_ANGLE_UNIT ( ) );
#138 = VERTEX_POINT ( 'NONE', #5 ) ;
#139 = COLOUR_RGB ( '',1.000000000000000000, 1.000000000000000000, 1.000000000000000000 ) ;
#140 = MANIFOLD_SOLID_BREP ( 'Ðý×ª4', #82 ) ;
#141 = PRESENTATION_LAYER_ASSIGNMENT (  '', '', ( #121 ) ) ;
#142 = CIRCLE ( 'NONE', #8, 4.128116438356144600 ) ;
#143 = ORIENTED_EDGE ( 'NONE', *, *, #93, .T. ) ;
#144 = ORIENTED_EDGE ( 'NONE', *, *, #128, .T. ) ;
#145 = DIRECTION ( 'NONE',  ( -1.000000000000000000, -9.340818716798274300E-015, -0.0000000000000000000 ) ) ;
#146 = PRODUCT ( '100006', '100006', '', ( #13 ) ) ;
#147 = DIRECTION ( 'NONE',  ( 8.811293846231401400E-015, -1.000000000000000000, 0.0000000000000000000 ) ) ;
#148 = SURFACE_STYLE_USAGE ( .BOTH. , #100 ) ;
#149 = CARTESIAN_POINT ( 'NONE',  ( 91.67839015575499700, 28.53248448665640800, 0.0000000000000000000 ) ) ;
#150 = PRODUCT_DEFINITION ( 'Î´Öª', '', #130, #131 ) ;
#151 = VECTOR ( 'NONE', #6, 1000.000000000000000 ) ;
#152 = ORIENTED_EDGE ( 'NONE', *, *, #128, .F. ) ;
#153 = APPLICATION_CONTEXT ( 'automotive_design' ) ;
#154 =( LENGTH_UNIT ( ) NAMED_UNIT ( * ) SI_UNIT ( .MILLI., .METRE. ) );
#155 = AXIS2_PLACEMENT_3D ( 'NONE', #89, #88, #18 ) ;
#156 = PRODUCT_DEFINITION_SHAPE ( 'NONE', 'NONE',  #150 ) ;
#157 = CARTESIAN_POINT ( 'NONE',  ( 93.20650659411121800, 25.38248448665640600, 0.0000000000000000000 ) ) ;
#158 = AXIS2_PLACEMENT_3D ( 'NONE', #78, #33, #114 ) ;
#159 = COLOUR_RGB ( '',1.000000000000000000, 1.000000000000000000, 1.000000000000000000 ) ;
#160 = DIRECTION ( 'NONE',  ( -1.000000000000000000, -9.340818716798274300E-015, -0.0000000000000000000 ) ) ;
#161 = VERTEX_POINT ( 'NONE', #127 ) ;
#162 = CARTESIAN_POINT ( 'NONE',  ( 91.67839015575499700, 28.53248448665640800, 0.0000000000000000000 ) ) ;
#163 = DIRECTION ( 'NONE',  ( -1.000000000000000000, -9.340818716798274300E-015, -0.0000000000000000000 ) ) ;
#164 = DIRECTION ( 'NONE',  ( -0.0000000000000000000, 0.0000000000000000000, 1.000000000000000000 ) ) ;
#165 = ADVANCED_FACE ( 'NONE', ( #44 ), #10, .T. ) ;
#166 = AXIS2_PLACEMENT_3D ( 'NONE', #69, #79, #1 ) ;
ENDSEC;
END-ISO-10303-21;
