ISO-10303-21;
HEADER;
FILE_DESCRIPTION (( 'STEP AP214' ),
    '1' );
FILE_NAME ('100015.STEP',
    '2019-04-19T07:14:33',
    ( '' ),
    ( '' ),
    'SwSTEP 2.0',
    'SolidWorks 2016',
    '' );
FILE_SCHEMA (( 'AUTOMOTIVE_DESIGN' ));
ENDSEC;

DATA;
#1 = PRODUCT_DEFINITION ( 'Î´Öª', '', #53, #68 ) ;
#2 = APPLICATION_CONTEXT ( 'automotive_design' ) ;
#3 = DIRECTION ( 'NONE',  ( 0.0000000000000000000, 1.000000000000000000, 1.224646799147354900E-016 ) ) ;
#4 = DIRECTION ( 'NONE',  ( -1.000000000000000000, -0.0000000000000000000, -0.0000000000000000000 ) ) ;
#5 = DIRECTION ( 'NONE',  ( -1.000000000000000000, -0.0000000000000000000, -0.0000000000000000000 ) ) ;
#6 = ORIENTED_EDGE ( 'NONE', *, *, #58, .F. ) ;
#7 = SURFACE_SIDE_STYLE ('',( #172 ) ) ;
#8 = ADVANCED_FACE ( 'NONE', ( #93 ), #128, .T. ) ;
#9 = ORIENTED_EDGE ( 'NONE', *, *, #150, .T. ) ;
#10 = CIRCLE ( 'NONE', #169, 4.999999999999976900 ) ;
#11 = VERTEX_POINT ( 'NONE', #59 ) ;
#12 = CARTESIAN_POINT ( 'NONE',  ( 487.6608951108970000, 142.9680863976366500, 0.0000000000000000000 ) ) ;
#13 = DIRECTION ( 'NONE',  ( -0.0000000000000000000, 0.0000000000000000000, -1.000000000000000000 ) ) ;
#14 = EDGE_CURVE ( 'NONE', #67, #134, #186, .T. ) ;
#15 = DIRECTION ( 'NONE',  ( 1.000000000000000000, 0.0000000000000000000, 0.0000000000000000000 ) ) ;
#16 = DIRECTION ( 'NONE',  ( -1.000000000000000000, -0.0000000000000000000, -0.0000000000000000000 ) ) ;
#17 = ORIENTED_EDGE ( 'NONE', *, *, #54, .F. ) ;
#18 = DIRECTION ( 'NONE',  ( 0.0000000000000000000, 0.0000000000000000000, 1.000000000000000000 ) ) ;
#19 = AXIS2_PLACEMENT_3D ( 'NONE', #48, #63, #29 ) ;
#20 = ORIENTED_EDGE ( 'NONE', *, *, #171, .F. ) ;
#21 = PRODUCT_CONTEXT ( 'NONE', #2, 'mechanical' ) ;
#22 = MECHANICAL_DESIGN_GEOMETRIC_PRESENTATION_REPRESENTATION (  '', ( #133 ), #27 ) ;
#23 = ADVANCED_FACE ( 'NONE', ( #122 ), #143, .T. ) ;
#24 = ORIENTED_EDGE ( 'NONE', *, *, #129, .F. ) ;
#25 = DIRECTION ( 'NONE',  ( -1.000000000000000000, -0.0000000000000000000, -0.0000000000000000000 ) ) ;
#26 = CARTESIAN_POINT ( 'NONE',  ( 484.9093745368297200, 142.9680863976366500, 0.0000000000000000000 ) ) ;
#27 =( GEOMETRIC_REPRESENTATION_CONTEXT ( 3 ) GLOBAL_UNCERTAINTY_ASSIGNED_CONTEXT ( ( #160 ) ) GLOBAL_UNIT_ASSIGNED_CONTEXT ( ( #33, #94, #36 ) ) REPRESENTATION_CONTEXT ( 'NONE', 'WORKASPACE' ) );
#28 = CARTESIAN_POINT ( 'NONE',  ( 481.0604189204207700, 142.9680863976366500, 0.0000000000000000000 ) ) ;
#29 = DIRECTION ( 'NONE',  ( 0.0000000000000000000, 0.0000000000000000000, -1.000000000000000000 ) ) ;
#30 = DIRECTION ( 'NONE',  ( 0.0000000000000000000, 0.0000000000000000000, 1.000000000000000000 ) ) ;
#31 = UNCERTAINTY_MEASURE_WITH_UNIT (LENGTH_MEASURE( 1.000000000000000100E-005 ), #151, 'distance_accuracy_value', 'NONE');
#32 = DIRECTION ( 'NONE',  ( -1.000000000000000000, -0.0000000000000000000, -0.0000000000000000000 ) ) ;
#33 =( LENGTH_UNIT ( ) NAMED_UNIT ( * ) SI_UNIT ( .MILLI., .METRE. ) );
#34 = ADVANCED_BREP_SHAPE_REPRESENTATION ( '100015', ( #100, #62 ), #185 ) ;
#35 = VERTEX_POINT ( 'NONE', #102 ) ;
#36 =( NAMED_UNIT ( * ) SI_UNIT ( $, .STERADIAN. ) SOLID_ANGLE_UNIT ( ) );
#37 = ADVANCED_FACE ( 'NONE', ( #50 ), #181, .T. ) ;
#38 = PRODUCT_DEFINITION_SHAPE ( 'NONE', 'NONE',  #1 ) ;
#39 = AXIS2_PLACEMENT_3D ( 'NONE', #105, #16, #87 ) ;
#40 = ORIENTED_EDGE ( 'NONE', *, *, #136, .T. ) ;
#41 = COLOUR_RGB ( '',1.000000000000000000, 1.000000000000000000, 1.000000000000000000 ) ;
#42 = DIRECTION ( 'NONE',  ( 0.0000000000000000000, 1.000000000000000000, 0.0000000000000000000 ) ) ;
#43 = CIRCLE ( 'NONE', #180, 4.999999999999976900 ) ;
#44 = DIRECTION ( 'NONE',  ( -0.0000000000000000000, 0.0000000000000000000, 1.000000000000000000 ) ) ;
#45 = CLOSED_SHELL ( 'NONE', ( #37, #23, #155, #8, #137 ) ) ;
#46 =( NAMED_UNIT ( * ) SI_UNIT ( $, .STERADIAN. ) SOLID_ANGLE_UNIT ( ) );
#47 = CARTESIAN_POINT ( 'NONE',  ( 487.6608951108970000, 147.9680863976366500, 0.0000000000000000000 ) ) ;
#48 = CARTESIAN_POINT ( 'NONE',  ( 486.1408951108969600, 142.9680863976366500, 0.0000000000000000000 ) ) ;
#49 = CIRCLE ( 'NONE', #165, 4.999999999999976900 ) ;
#50 = FACE_OUTER_BOUND ( 'NONE', #74, .T. ) ;
#51 =( NAMED_UNIT ( * ) PLANE_ANGLE_UNIT ( ) SI_UNIT ( $, .RADIAN. ) );
#52 = APPLICATION_PROTOCOL_DEFINITION ( 'draft international standard', 'automotive_design', 1998, #140 ) ;
#53 = PRODUCT_DEFINITION_FORMATION_WITH_SPECIFIED_SOURCE ( 'ÈÎºÎ', '', #167, .NOT_KNOWN. ) ;
#54 = EDGE_CURVE ( 'NONE', #88, #11, #43, .T. ) ;
#55 = LINE ( 'NONE', #101, #166 ) ;
#56 = CIRCLE ( 'NONE', #91, 4.999999999999976900 ) ;
#57 = DIRECTION ( 'NONE',  ( -1.000000000000000000, -0.0000000000000000000, -0.0000000000000000000 ) ) ;
#58 = EDGE_CURVE ( 'NONE', #132, #134, #112, .T. ) ;
#59 = CARTESIAN_POINT ( 'NONE',  ( 486.1408951108969600, 142.9680863976366500, -4.999999999999976900 ) ) ;
#60 = EDGE_LOOP ( 'NONE', ( #24, #71, #6, #157 ) ) ;
#61 = CARTESIAN_POINT ( 'NONE',  ( 489.3408951108970100, 142.9680863976366500, 0.0000000000000000000 ) ) ;
#62 = AXIS2_PLACEMENT_3D ( 'NONE', #162, #77, #113 ) ;
#63 = DIRECTION ( 'NONE',  ( 1.000000000000000000, 0.0000000000000000000, 0.0000000000000000000 ) ) ;
#64 = AXIS2_PLACEMENT_3D ( 'NONE', #26, #25, #147 ) ;
#65 = CARTESIAN_POINT ( 'NONE',  ( 487.6608951108970000, 142.9680863976366500, 0.0000000000000000000 ) ) ;
#66 = PLANE ( 'NONE',  #19 ) ;
#67 = VERTEX_POINT ( 'NONE', #61 ) ;
#68 = PRODUCT_DEFINITION_CONTEXT ( 'detailed design', #140, 'design' ) ;
#69 = AXIS2_PLACEMENT_3D ( 'NONE', #28, #174, #3 ) ;
#70 = DIRECTION ( 'NONE',  ( 0.0000000000000000000, 0.0000000000000000000, 1.000000000000000000 ) ) ;
#71 = ORIENTED_EDGE ( 'NONE', *, *, #14, .T. ) ;
#72 = CARTESIAN_POINT ( 'NONE',  ( 487.6608951108970000, 142.9680863976366500, -4.999999999999976900 ) ) ;
#73 = FILL_AREA_STYLE ('',( #149 ) ) ;
#74 = EDGE_LOOP ( 'NONE', ( #103, #9, #17, #159, #115 ) ) ;
#75 = DIRECTION ( 'NONE',  ( 0.0000000000000000000, 0.0000000000000000000, 1.000000000000000000 ) ) ;
#76 = EDGE_LOOP ( 'NONE', ( #158, #114, #120, #170, #124 ) ) ;
#77 = DIRECTION ( 'NONE',  ( 0.0000000000000000000, 0.0000000000000000000, 1.000000000000000000 ) ) ;
#78 = SURFACE_STYLE_FILL_AREA ( #73 ) ;
#79 = STYLED_ITEM ( 'NONE', ( #182 ), #100 ) ;
#80 = ORIENTED_EDGE ( 'NONE', *, *, #54, .T. ) ;
#81 = COLOUR_RGB ( '',1.000000000000000000, 1.000000000000000000, 1.000000000000000000 ) ;
#82 = EDGE_CURVE ( 'NONE', #132, #88, #55, .T. ) ;
#83 = CIRCLE ( 'NONE', #69, 8.280476190476198500 ) ;
#84 = CARTESIAN_POINT ( 'NONE',  ( 487.6608951108970000, 142.9680863976366500, 4.999999999999976900 ) ) ;
#85 = ORIENTED_EDGE ( 'NONE', *, *, #14, .F. ) ;
#86 = AXIS2_PLACEMENT_3D ( 'NONE', #12, #117, #146 ) ;
#87 = DIRECTION ( 'NONE',  ( 0.0000000000000000000, 0.0000000000000000000, 1.000000000000000000 ) ) ;
#88 = VERTEX_POINT ( 'NONE', #109 ) ;
#89 = SURFACE_SIDE_STYLE ('',( #78 ) ) ;
#90 = CARTESIAN_POINT ( 'NONE',  ( 481.0604189204207700, 142.9680863976366500, 0.0000000000000000000 ) ) ;
#91 = AXIS2_PLACEMENT_3D ( 'NONE', #138, #148, #18 ) ;
#92 = CARTESIAN_POINT ( 'NONE',  ( 487.6608951108970000, 142.9680863976366500, 0.0000000000000000000 ) ) ;
#93 = FACE_OUTER_BOUND ( 'NONE', #76, .T. ) ;
#94 =( NAMED_UNIT ( * ) PLANE_ANGLE_UNIT ( ) SI_UNIT ( $, .RADIAN. ) );
#95 =( GEOMETRIC_REPRESENTATION_CONTEXT ( 3 ) GLOBAL_UNCERTAINTY_ASSIGNED_CONTEXT ( ( #31 ) ) GLOBAL_UNIT_ASSIGNED_CONTEXT ( ( #151, #121, #46 ) ) REPRESENTATION_CONTEXT ( 'NONE', 'WORKASPACE' ) );
#96 = AXIS2_PLACEMENT_3D ( 'NONE', #131, #13, #42 ) ;
#97 = EDGE_LOOP ( 'NONE', ( #80, #40 ) ) ;
#98 = FACE_OUTER_BOUND ( 'NONE', #97, .T. ) ;
#99 = AXIS2_PLACEMENT_3D ( 'NONE', #90, #164, #179 ) ;
#100 = MANIFOLD_SOLID_BREP ( 'Ðý×ª1', #45 ) ;
#101 = CARTESIAN_POINT ( 'NONE',  ( 484.9093745368297200, 142.9680863976366500, 4.999999999999976900 ) ) ;
#102 = CARTESIAN_POINT ( 'NONE',  ( 487.6608951108970000, 137.9680863976366300, -6.123233995736752500E-016 ) ) ;
#103 = ORIENTED_EDGE ( 'NONE', *, *, #171, .T. ) ;
#104 = EDGE_CURVE ( 'NONE', #153, #35, #10, .T. ) ;
#105 = CARTESIAN_POINT ( 'NONE',  ( 484.9093745368297200, 142.9680863976366500, 0.0000000000000000000 ) ) ;
#106 = APPLICATION_PROTOCOL_DEFINITION ( 'draft international standard', 'automotive_design', 1998, #2 ) ;
#107 = AXIS2_PLACEMENT_3D ( 'NONE', #65, #32, #75 ) ;
#108 = SURFACE_STYLE_USAGE ( .BOTH. , #89 ) ;
#109 = CARTESIAN_POINT ( 'NONE',  ( 486.1408951108969600, 142.9680863976366500, 4.999999999999976900 ) ) ;
#110 = DIRECTION ( 'NONE',  ( 0.0000000000000000000, 0.0000000000000000000, 1.000000000000000000 ) ) ;
#111 = PRESENTATION_LAYER_ASSIGNMENT (  '', '', ( #79 ) ) ;
#112 = CIRCLE ( 'NONE', #86, 4.999999999999976900 ) ;
#113 = DIRECTION ( 'NONE',  ( 1.000000000000000000, 0.0000000000000000000, 0.0000000000000000000 ) ) ;
#114 = ORIENTED_EDGE ( 'NONE', *, *, #104, .T. ) ;
#115 = ORIENTED_EDGE ( 'NONE', *, *, #58, .T. ) ;
#116 = CARTESIAN_POINT ( 'NONE',  ( 481.0604189204207700, 142.9680863976366500, 0.0000000000000000000 ) ) ;
#117 = DIRECTION ( 'NONE',  ( -1.000000000000000000, -0.0000000000000000000, -0.0000000000000000000 ) ) ;
#118 = ORIENTED_EDGE ( 'NONE', *, *, #129, .T. ) ;
#119 = CARTESIAN_POINT ( 'NONE',  ( 484.9093745368297200, 142.9680863976366500, -4.999999999999976900 ) ) ;
#120 = ORIENTED_EDGE ( 'NONE', *, *, #142, .T. ) ;
#121 =( NAMED_UNIT ( * ) PLANE_ANGLE_UNIT ( ) SI_UNIT ( $, .RADIAN. ) );
#122 = FACE_OUTER_BOUND ( 'NONE', #161, .T. ) ;
#123 = FILL_AREA_STYLE ('',( #177 ) ) ;
#124 = ORIENTED_EDGE ( 'NONE', *, *, #136, .F. ) ;
#125 = SURFACE_STYLE_USAGE ( .BOTH. , #7 ) ;
#126 = ORIENTED_EDGE ( 'NONE', *, *, #104, .F. ) ;
#127 = MECHANICAL_DESIGN_GEOMETRIC_PRESENTATION_REPRESENTATION (  '', ( #79 ), #95 ) ;
#128 = CYLINDRICAL_SURFACE ( 'NONE', #39, 4.999999999999976900 ) ;
#129 = EDGE_CURVE ( 'NONE', #67, #35, #83, .T. ) ;
#130 = SPHERICAL_SURFACE ( 'NONE', #99, 8.280476190476209200 ) ;
#131 = CARTESIAN_POINT ( 'NONE',  ( 481.0604189204207700, 142.9680863976366500, 0.0000000000000000000 ) ) ;
#132 = VERTEX_POINT ( 'NONE', #84 ) ;
#133 = STYLED_ITEM ( 'NONE', ( #163 ), #34 ) ;
#134 = VERTEX_POINT ( 'NONE', #47 ) ;
#135 = DIRECTION ( 'NONE',  ( -1.000000000000000000, -0.0000000000000000000, -0.0000000000000000000 ) ) ;
#136 = EDGE_CURVE ( 'NONE', #11, #88, #56, .T. ) ;
#137 = ADVANCED_FACE ( 'NONE', ( #98 ), #66, .F. ) ;
#138 = CARTESIAN_POINT ( 'NONE',  ( 486.1408951108969600, 142.9680863976366500, 0.0000000000000000000 ) ) ;
#139 =( LENGTH_UNIT ( ) NAMED_UNIT ( * ) SI_UNIT ( .MILLI., .METRE. ) );
#140 = APPLICATION_CONTEXT ( 'automotive_design' ) ;
#141 = VECTOR ( 'NONE', #175, 1000.000000000000000 ) ;
#142 = EDGE_CURVE ( 'NONE', #35, #132, #156, .T. ) ;
#143 = SPHERICAL_SURFACE ( 'NONE', #96, 8.280476190476209200 ) ;
#144 = PRESENTATION_LAYER_ASSIGNMENT (  '', '', ( #133 ) ) ;
#145 = CARTESIAN_POINT ( 'NONE',  ( 486.1408951108969600, 142.9680863976366500, 0.0000000000000000000 ) ) ;
#146 = DIRECTION ( 'NONE',  ( 0.0000000000000000000, 0.0000000000000000000, 1.000000000000000000 ) ) ;
#147 = DIRECTION ( 'NONE',  ( 0.0000000000000000000, 0.0000000000000000000, 1.000000000000000000 ) ) ;
#148 = DIRECTION ( 'NONE',  ( -1.000000000000000000, -0.0000000000000000000, -0.0000000000000000000 ) ) ;
#149 = FILL_AREA_STYLE_COLOUR ( '', #81 ) ;
#150 = EDGE_CURVE ( 'NONE', #153, #11, #176, .T. ) ;
#151 =( LENGTH_UNIT ( ) NAMED_UNIT ( * ) SI_UNIT ( .MILLI., .METRE. ) );
#152 =( NAMED_UNIT ( * ) SI_UNIT ( $, .STERADIAN. ) SOLID_ANGLE_UNIT ( ) );
#153 = VERTEX_POINT ( 'NONE', #72 ) ;
#154 = PRODUCT_RELATED_PRODUCT_CATEGORY ( 'part', '', ( #167 ) ) ;
#155 = ADVANCED_FACE ( 'NONE', ( #168 ), #130, .T. ) ;
#156 = CIRCLE ( 'NONE', #107, 4.999999999999976900 ) ;
#157 = ORIENTED_EDGE ( 'NONE', *, *, #142, .F. ) ;
#158 = ORIENTED_EDGE ( 'NONE', *, *, #150, .F. ) ;
#159 = ORIENTED_EDGE ( 'NONE', *, *, #82, .F. ) ;
#160 = UNCERTAINTY_MEASURE_WITH_UNIT (LENGTH_MEASURE( 1.000000000000000100E-005 ), #33, 'distance_accuracy_value', 'NONE');
#161 = EDGE_LOOP ( 'NONE', ( #85, #118, #126, #20 ) ) ;
#162 = CARTESIAN_POINT ( 'NONE',  ( 0.0000000000000000000, 0.0000000000000000000, 0.0000000000000000000 ) ) ;
#163 = PRESENTATION_STYLE_ASSIGNMENT (( #125 ) ) ;
#164 = DIRECTION ( 'NONE',  ( -0.0000000000000000000, 0.0000000000000000000, -1.000000000000000000 ) ) ;
#165 = AXIS2_PLACEMENT_3D ( 'NONE', #92, #5, #110 ) ;
#166 = VECTOR ( 'NONE', #135, 1000.000000000000000 ) ;
#167 = PRODUCT ( '100015', '100015', '', ( #21 ) ) ;
#168 = FACE_OUTER_BOUND ( 'NONE', #60, .T. ) ;
#169 = AXIS2_PLACEMENT_3D ( 'NONE', #173, #4, #30 ) ;
#170 = ORIENTED_EDGE ( 'NONE', *, *, #82, .T. ) ;
#171 = EDGE_CURVE ( 'NONE', #134, #153, #49, .T. ) ;
#172 = SURFACE_STYLE_FILL_AREA ( #123 ) ;
#173 = CARTESIAN_POINT ( 'NONE',  ( 487.6608951108970000, 142.9680863976366500, 0.0000000000000000000 ) ) ;
#174 = DIRECTION ( 'NONE',  ( 0.0000000000000000000, 1.224646799147353200E-016, -1.000000000000000000 ) ) ;
#175 = DIRECTION ( 'NONE',  ( -1.000000000000000000, -0.0000000000000000000, -0.0000000000000000000 ) ) ;
#176 = LINE ( 'NONE', #119, #141 ) ;
#177 = FILL_AREA_STYLE_COLOUR ( '', #41 ) ;
#178 = AXIS2_PLACEMENT_3D ( 'NONE', #116, #44, #15 ) ;
#179 = DIRECTION ( 'NONE',  ( 0.0000000000000000000, 1.000000000000000000, 0.0000000000000000000 ) ) ;
#180 = AXIS2_PLACEMENT_3D ( 'NONE', #145, #57, #70 ) ;
#181 = CYLINDRICAL_SURFACE ( 'NONE', #64, 4.999999999999976900 ) ;
#182 = PRESENTATION_STYLE_ASSIGNMENT (( #108 ) ) ;
#183 = SHAPE_DEFINITION_REPRESENTATION ( #38, #34 ) ;
#184 = UNCERTAINTY_MEASURE_WITH_UNIT (LENGTH_MEASURE( 1.000000000000000100E-005 ), #139, 'distance_accuracy_value', 'NONE');
#185 =( GEOMETRIC_REPRESENTATION_CONTEXT ( 3 ) GLOBAL_UNCERTAINTY_ASSIGNED_CONTEXT ( ( #184 ) ) GLOBAL_UNIT_ASSIGNED_CONTEXT ( ( #139, #51, #152 ) ) REPRESENTATION_CONTEXT ( 'NONE', 'WORKASPACE' ) );
#186 = CIRCLE ( 'NONE', #178, 8.280476190476227000 ) ;
ENDSEC;
END-ISO-10303-21;
