ISO-10303-21;
HEADER;
FILE_DESCRIPTION (( 'STEP AP214' ),
    '1' );
FILE_NAME ('100019.STEP',
    '2019-04-19T08:11:50',
    ( '' ),
    ( '' ),
    'SwSTEP 2.0',
    'SolidWorks 2016',
    '' );
FILE_SCHEMA (( 'AUTOMOTIVE_DESIGN' ));
ENDSEC;

DATA;
#1 = ORIENTED_EDGE ( 'NONE', *, *, #37, .T. ) ;
#2 = CYLINDRICAL_SURFACE ( 'NONE', #108, 5.000000000000004400 ) ;
#3 = AXIS2_PLACEMENT_3D ( 'NONE', #48, #158, #20 ) ;
#4 = EDGE_CURVE ( 'NONE', #49, #129, #29, .T. ) ;
#5 = MANIFOLD_SOLID_BREP ( 'Ðý×ª1', #80 ) ;
#6 = FILL_AREA_STYLE ('',( #106 ) ) ;
#7 = SURFACE_SIDE_STYLE ('',( #17 ) ) ;
#8 = ADVANCED_FACE ( 'NONE', ( #38 ), #100, .T. ) ;
#9 = VERTEX_POINT ( 'NONE', #91 ) ;
#10 = APPLICATION_CONTEXT ( 'automotive_design' ) ;
#11 = CARTESIAN_POINT ( 'NONE',  ( 1198.282751292302200, 359.5544348093115400, 0.0000000000000000000 ) ) ;
#12 = AXIS2_PLACEMENT_3D ( 'NONE', #69, #165, #177 ) ;
#13 =( GEOMETRIC_REPRESENTATION_CONTEXT ( 3 ) GLOBAL_UNCERTAINTY_ASSIGNED_CONTEXT ( ( #71 ) ) GLOBAL_UNIT_ASSIGNED_CONTEXT ( ( #154, #56, #184 ) ) REPRESENTATION_CONTEXT ( 'NONE', 'WORKASPACE' ) );
#14 = STYLED_ITEM ( 'NONE', ( #172 ), #5 ) ;
#15 = ORIENTED_EDGE ( 'NONE', *, *, #4, .T. ) ;
#16 = EDGE_CURVE ( 'NONE', #9, #34, #118, .T. ) ;
#17 = SURFACE_STYLE_FILL_AREA ( #141 ) ;
#18 = SURFACE_SIDE_STYLE ('',( #181 ) ) ;
#19 = PRODUCT_DEFINITION_CONTEXT ( 'detailed design', #10, 'design' ) ;
#20 = DIRECTION ( 'NONE',  ( 0.0000000000000000000, -1.000000000000000000, 0.0000000000000000000 ) ) ;
#21 = PRODUCT_CONTEXT ( 'NONE', #44, 'mechanical' ) ;
#22 = AXIS2_PLACEMENT_3D ( 'NONE', #152, #57, #167 ) ;
#23 = MECHANICAL_DESIGN_GEOMETRIC_PRESENTATION_REPRESENTATION (  '', ( #14 ), #46 ) ;
#24 = SHAPE_DEFINITION_REPRESENTATION ( #162, #54 ) ;
#25 = APPLICATION_PROTOCOL_DEFINITION ( 'draft international standard', 'automotive_design', 1998, #44 ) ;
#26 = CARTESIAN_POINT ( 'NONE',  ( 1191.545691095387200, 359.5544348093111500, 0.0000000000000000000 ) ) ;
#27 = ORIENTED_EDGE ( 'NONE', *, *, #28, .F. ) ;
#28 = EDGE_CURVE ( 'NONE', #111, #107, #123, .T. ) ;
#29 = CIRCLE ( 'NONE', #32, 5.000000000000004400 ) ;
#30 = PRESENTATION_STYLE_ASSIGNMENT (( #110 ) ) ;
#31 = CIRCLE ( 'NONE', #142, 5.000000000000004400 ) ;
#32 = AXIS2_PLACEMENT_3D ( 'NONE', #64, #119, #36 ) ;
#33 = AXIS2_PLACEMENT_3D ( 'NONE', #11, #127, #182 ) ;
#34 = VERTEX_POINT ( 'NONE', #94 ) ;
#35 = FACE_OUTER_BOUND ( 'NONE', #113, .T. ) ;
#36 = DIRECTION ( 'NONE',  ( 0.0000000000000000000, 0.0000000000000000000, 1.000000000000000000 ) ) ;
#37 = EDGE_CURVE ( 'NONE', #131, #129, #90, .T. ) ;
#38 = FACE_OUTER_BOUND ( 'NONE', #42, .T. ) ;
#39 = FACE_OUTER_BOUND ( 'NONE', #178, .T. ) ;
#40 = AXIS2_PLACEMENT_3D ( 'NONE', #66, #185, #99 ) ;
#41 = FACE_OUTER_BOUND ( 'NONE', #164, .T. ) ;
#42 = EDGE_LOOP ( 'NONE', ( #120, #70, #104, #27 ) ) ;
#43 = CARTESIAN_POINT ( 'NONE',  ( 1216.979554570990800, 359.5544348093111500, 0.0000000000000000000 ) ) ;
#44 = APPLICATION_CONTEXT ( 'automotive_design' ) ;
#45 = PRODUCT_DEFINITION_FORMATION_WITH_SPECIFIED_SOURCE ( 'ÈÎºÎ', '', #116, .NOT_KNOWN. ) ;
#46 =( GEOMETRIC_REPRESENTATION_CONTEXT ( 3 ) GLOBAL_UNCERTAINTY_ASSIGNED_CONTEXT ( ( #124 ) ) GLOBAL_UNIT_ASSIGNED_CONTEXT ( ( #159, #81, #175 ) ) REPRESENTATION_CONTEXT ( 'NONE', 'WORKASPACE' ) );
#47 = AXIS2_PLACEMENT_3D ( 'NONE', #93, #166, #137 ) ;
#48 = CARTESIAN_POINT ( 'NONE',  ( 1198.282751292302200, 359.5544348093115400, 0.0000000000000000000 ) ) ;
#49 = VERTEX_POINT ( 'NONE', #147 ) ;
#50 = PRODUCT_RELATED_PRODUCT_CATEGORY ( 'part', '', ( #116 ) ) ;
#51 = DIRECTION ( 'NONE',  ( 0.0000000000000000000, 0.0000000000000000000, -1.000000000000000000 ) ) ;
#52 = EDGE_LOOP ( 'NONE', ( #126, #92, #128, #117, #89 ) ) ;
#53 = CARTESIAN_POINT ( 'NONE',  ( 1191.545691095387200, 359.5544348093111500, 5.000000000000004400 ) ) ;
#54 = ADVANCED_BREP_SHAPE_REPRESENTATION ( '100019', ( #5, #103 ), #88 ) ;
#55 = DIRECTION ( 'NONE',  ( -1.000000000000000000, -0.0000000000000000000, -0.0000000000000000000 ) ) ;
#56 =( NAMED_UNIT ( * ) PLANE_ANGLE_UNIT ( ) SI_UNIT ( $, .RADIAN. ) );
#57 = DIRECTION ( 'NONE',  ( 0.0000000000000000000, 0.0000000000000000000, 1.000000000000000000 ) ) ;
#58 = DIRECTION ( 'NONE',  ( -1.000000000000000000, -0.0000000000000000000, -0.0000000000000000000 ) ) ;
#59 = DIRECTION ( 'NONE',  ( 0.0000000000000000000, 0.0000000000000000000, 1.000000000000000000 ) ) ;
#60 = PRESENTATION_LAYER_ASSIGNMENT (  '', '', ( #67 ) ) ;
#61 =( LENGTH_UNIT ( ) NAMED_UNIT ( * ) SI_UNIT ( .MILLI., .METRE. ) );
#62 = ORIENTED_EDGE ( 'NONE', *, *, #168, .T. ) ;
#63 = ORIENTED_EDGE ( 'NONE', *, *, #139, .F. ) ;
#64 = CARTESIAN_POINT ( 'NONE',  ( 1216.979554570990800, 359.5544348093111500, 0.0000000000000000000 ) ) ;
#65 = SPHERICAL_SURFACE ( 'NONE', #22, 20.79680327868844700 ) ;
#66 = CARTESIAN_POINT ( 'NONE',  ( 1218.469554570990800, 359.5544348093111500, 0.0000000000000000000 ) ) ;
#67 = STYLED_ITEM ( 'NONE', ( #30 ), #54 ) ;
#68 = ADVANCED_FACE ( 'NONE', ( #35 ), #134, .F. ) ;
#69 = CARTESIAN_POINT ( 'NONE',  ( 1218.469554570990800, 359.5544348093111500, 0.0000000000000000000 ) ) ;
#70 = ORIENTED_EDGE ( 'NONE', *, *, #16, .T. ) ;
#71 = UNCERTAINTY_MEASURE_WITH_UNIT (LENGTH_MEASURE( 1.000000000000000100E-005 ), #154, 'distance_accuracy_value', 'NONE');
#72 = DIRECTION ( 'NONE',  ( 0.0000000000000000000, 0.0000000000000000000, -1.000000000000000000 ) ) ;
#73 = FILL_AREA_STYLE_COLOUR ( '', #109 ) ;
#74 = CARTESIAN_POINT ( 'NONE',  ( 1216.979554570990800, 359.5544348093111500, 5.000000000000004400 ) ) ;
#75 = MECHANICAL_DESIGN_GEOMETRIC_PRESENTATION_REPRESENTATION (  '', ( #67 ), #13 ) ;
#76 = COLOUR_RGB ( '',1.000000000000000000, 1.000000000000000000, 1.000000000000000000 ) ;
#77 = VECTOR ( 'NONE', #170, 1000.000000000000000 ) ;
#78 = UNCERTAINTY_MEASURE_WITH_UNIT (LENGTH_MEASURE( 1.000000000000000100E-005 ), #61, 'distance_accuracy_value', 'NONE');
#79 = ORIENTED_EDGE ( 'NONE', *, *, #4, .F. ) ;
#80 = CLOSED_SHELL ( 'NONE', ( #133, #83, #8, #98, #68 ) ) ;
#81 =( NAMED_UNIT ( * ) PLANE_ANGLE_UNIT ( ) SI_UNIT ( $, .RADIAN. ) );
#82 = SURFACE_STYLE_USAGE ( .BOTH. , #18 ) ;
#83 = ADVANCED_FACE ( 'NONE', ( #39 ), #65, .T. ) ;
#84 = DIRECTION ( 'NONE',  ( 0.0000000000000000000, 0.0000000000000000000, 1.000000000000000000 ) ) ;
#85 =( NAMED_UNIT ( * ) PLANE_ANGLE_UNIT ( ) SI_UNIT ( $, .RADIAN. ) );
#86 = AXIS2_PLACEMENT_3D ( 'NONE', #26, #180, #125 ) ;
#87 = CIRCLE ( 'NONE', #33, 20.79680327868843600 ) ;
#88 =( GEOMETRIC_REPRESENTATION_CONTEXT ( 3 ) GLOBAL_UNCERTAINTY_ASSIGNED_CONTEXT ( ( #78 ) ) GLOBAL_UNIT_ASSIGNED_CONTEXT ( ( #61, #85, #176 ) ) REPRESENTATION_CONTEXT ( 'NONE', 'WORKASPACE' ) );
#89 = ORIENTED_EDGE ( 'NONE', *, *, #144, .T. ) ;
#90 = LINE ( 'NONE', #53, #148 ) ;
#91 = CARTESIAN_POINT ( 'NONE',  ( 1219.079554570990700, 359.5544348093115400, 0.0000000000000000000 ) ) ;
#92 = ORIENTED_EDGE ( 'NONE', *, *, #139, .T. ) ;
#93 = CARTESIAN_POINT ( 'NONE',  ( 1218.469554570990800, 359.5544348093111500, 0.0000000000000000000 ) ) ;
#94 = CARTESIAN_POINT ( 'NONE',  ( 1218.469554570990800, 354.5544348093114900, 0.0000000000000000000 ) ) ;
#95 = PRODUCT_DEFINITION ( 'Î´Öª', '', #45, #19 ) ;
#96 = DIRECTION ( 'NONE',  ( 1.000000000000000000, 0.0000000000000000000, 0.0000000000000000000 ) ) ;
#97 = DIRECTION ( 'NONE',  ( 1.000000000000000000, 0.0000000000000000000, 0.0000000000000000000 ) ) ;
#98 = ADVANCED_FACE ( 'NONE', ( #41 ), #105, .T. ) ;
#99 = DIRECTION ( 'NONE',  ( 0.0000000000000000000, 0.0000000000000000000, 1.000000000000000000 ) ) ;
#100 = SPHERICAL_SURFACE ( 'NONE', #3, 20.79680327868844700 ) ;
#101 = ORIENTED_EDGE ( 'NONE', *, *, #156, .T. ) ;
#102 = CIRCLE ( 'NONE', #47, 5.000000000000004400 ) ;
#103 = AXIS2_PLACEMENT_3D ( 'NONE', #132, #160, #97 ) ;
#104 = ORIENTED_EDGE ( 'NONE', *, *, #157, .F. ) ;
#105 = CYLINDRICAL_SURFACE ( 'NONE', #86, 5.000000000000004400 ) ;
#106 = FILL_AREA_STYLE_COLOUR ( '', #76 ) ;
#107 = VERTEX_POINT ( 'NONE', #138 ) ;
#108 = AXIS2_PLACEMENT_3D ( 'NONE', #183, #136, #84 ) ;
#109 = COLOUR_RGB ( '',1.000000000000000000, 1.000000000000000000, 1.000000000000000000 ) ;
#110 = SURFACE_STYLE_USAGE ( .BOTH. , #7 ) ;
#111 = VERTEX_POINT ( 'NONE', #153 ) ;
#112 = CARTESIAN_POINT ( 'NONE',  ( 1198.282751292302200, 359.5544348093115400, 0.0000000000000000000 ) ) ;
#113 = EDGE_LOOP ( 'NONE', ( #101, #15 ) ) ;
#114 = DIRECTION ( 'NONE',  ( 0.0000000000000000000, 0.0000000000000000000, 1.000000000000000000 ) ) ;
#115 = AXIS2_PLACEMENT_3D ( 'NONE', #163, #96, #72 ) ;
#116 = PRODUCT ( '100019', '100019', '', ( #21 ) ) ;
#117 = ORIENTED_EDGE ( 'NONE', *, *, #37, .F. ) ;
#118 = CIRCLE ( 'NONE', #171, 20.79680327868849300 ) ;
#119 = DIRECTION ( 'NONE',  ( -1.000000000000000000, -0.0000000000000000000, -0.0000000000000000000 ) ) ;
#120 = ORIENTED_EDGE ( 'NONE', *, *, #168, .F. ) ;
#121 = CIRCLE ( 'NONE', #40, 5.000000000000004400 ) ;
#122 = CARTESIAN_POINT ( 'NONE',  ( 1218.469554570990800, 359.5544348093111500, 0.0000000000000000000 ) ) ;
#123 = CIRCLE ( 'NONE', #12, 5.000000000000004400 ) ;
#124 = UNCERTAINTY_MEASURE_WITH_UNIT (LENGTH_MEASURE( 1.000000000000000100E-005 ), #159, 'distance_accuracy_value', 'NONE');
#125 = DIRECTION ( 'NONE',  ( 0.0000000000000000000, 0.0000000000000000000, 1.000000000000000000 ) ) ;
#126 = ORIENTED_EDGE ( 'NONE', *, *, #28, .T. ) ;
#127 = DIRECTION ( 'NONE',  ( 0.0000000000000000000, -1.224646799147353200E-016, 1.000000000000000000 ) ) ;
#128 = ORIENTED_EDGE ( 'NONE', *, *, #156, .F. ) ;
#129 = VERTEX_POINT ( 'NONE', #74 ) ;
#130 = ORIENTED_EDGE ( 'NONE', *, *, #144, .F. ) ;
#131 = VERTEX_POINT ( 'NONE', #169 ) ;
#132 = CARTESIAN_POINT ( 'NONE',  ( 0.0000000000000000000, 0.0000000000000000000, 0.0000000000000000000 ) ) ;
#133 = ADVANCED_FACE ( 'NONE', ( #140 ), #2, .T. ) ;
#134 = PLANE ( 'NONE',  #115 ) ;
#135 = AXIS2_PLACEMENT_3D ( 'NONE', #122, #58, #59 ) ;
#136 = DIRECTION ( 'NONE',  ( -1.000000000000000000, -0.0000000000000000000, -0.0000000000000000000 ) ) ;
#137 = DIRECTION ( 'NONE',  ( 0.0000000000000000000, 0.0000000000000000000, 1.000000000000000000 ) ) ;
#138 = CARTESIAN_POINT ( 'NONE',  ( 1218.469554570990800, 359.5544348093111500, -5.000000000000004400 ) ) ;
#139 = EDGE_CURVE ( 'NONE', #107, #49, #186, .T. ) ;
#140 = FACE_OUTER_BOUND ( 'NONE', #52, .T. ) ;
#141 = FILL_AREA_STYLE ('',( #73 ) ) ;
#142 = AXIS2_PLACEMENT_3D ( 'NONE', #43, #55, #114 ) ;
#143 = ORIENTED_EDGE ( 'NONE', *, *, #16, .F. ) ;
#144 = EDGE_CURVE ( 'NONE', #131, #111, #121, .T. ) ;
#145 = ORIENTED_EDGE ( 'NONE', *, *, #157, .T. ) ;
#146 = PRESENTATION_LAYER_ASSIGNMENT (  '', '', ( #14 ) ) ;
#147 = CARTESIAN_POINT ( 'NONE',  ( 1216.979554570990800, 359.5544348093111500, -5.000000000000004400 ) ) ;
#148 = VECTOR ( 'NONE', #150, 1000.000000000000000 ) ;
#149 = DIRECTION ( 'NONE',  ( -1.000000000000000000, 0.0000000000000000000, 0.0000000000000000000 ) ) ;
#150 = DIRECTION ( 'NONE',  ( -1.000000000000000000, -0.0000000000000000000, -0.0000000000000000000 ) ) ;
#151 = APPLICATION_PROTOCOL_DEFINITION ( 'draft international standard', 'automotive_design', 1998, #10 ) ;
#152 = CARTESIAN_POINT ( 'NONE',  ( 1198.282751292302200, 359.5544348093115400, 0.0000000000000000000 ) ) ;
#153 = CARTESIAN_POINT ( 'NONE',  ( 1218.469554570990800, 364.5544348093112600, 6.123233995736435000E-016 ) ) ;
#154 =( LENGTH_UNIT ( ) NAMED_UNIT ( * ) SI_UNIT ( .MILLI., .METRE. ) );
#155 = ORIENTED_EDGE ( 'NONE', *, *, #174, .F. ) ;
#156 = EDGE_CURVE ( 'NONE', #129, #49, #31, .T. ) ;
#157 = EDGE_CURVE ( 'NONE', #107, #34, #102, .T. ) ;
#158 = DIRECTION ( 'NONE',  ( 0.0000000000000000000, 0.0000000000000000000, 1.000000000000000000 ) ) ;
#159 =( LENGTH_UNIT ( ) NAMED_UNIT ( * ) SI_UNIT ( .MILLI., .METRE. ) );
#160 = DIRECTION ( 'NONE',  ( 0.0000000000000000000, 0.0000000000000000000, 1.000000000000000000 ) ) ;
#161 = ORIENTED_EDGE ( 'NONE', *, *, #174, .T. ) ;
#162 = PRODUCT_DEFINITION_SHAPE ( 'NONE', 'NONE',  #95 ) ;
#163 = CARTESIAN_POINT ( 'NONE',  ( 1216.979554570990800, 359.5544348093111500, 0.0000000000000000000 ) ) ;
#164 = EDGE_LOOP ( 'NONE', ( #63, #145, #161, #1, #79 ) ) ;
#165 = DIRECTION ( 'NONE',  ( -1.000000000000000000, -0.0000000000000000000, -0.0000000000000000000 ) ) ;
#166 = DIRECTION ( 'NONE',  ( -1.000000000000000000, -0.0000000000000000000, -0.0000000000000000000 ) ) ;
#167 = DIRECTION ( 'NONE',  ( 0.0000000000000000000, -1.000000000000000000, 0.0000000000000000000 ) ) ;
#168 = EDGE_CURVE ( 'NONE', #9, #111, #87, .T. ) ;
#169 = CARTESIAN_POINT ( 'NONE',  ( 1218.469554570990800, 359.5544348093111500, 5.000000000000004400 ) ) ;
#170 = DIRECTION ( 'NONE',  ( -1.000000000000000000, -0.0000000000000000000, -0.0000000000000000000 ) ) ;
#171 = AXIS2_PLACEMENT_3D ( 'NONE', #112, #51, #149 ) ;
#172 = PRESENTATION_STYLE_ASSIGNMENT (( #82 ) ) ;
#173 = CIRCLE ( 'NONE', #135, 5.000000000000004400 ) ;
#174 = EDGE_CURVE ( 'NONE', #34, #131, #173, .T. ) ;
#175 =( NAMED_UNIT ( * ) SI_UNIT ( $, .STERADIAN. ) SOLID_ANGLE_UNIT ( ) );
#176 =( NAMED_UNIT ( * ) SI_UNIT ( $, .STERADIAN. ) SOLID_ANGLE_UNIT ( ) );
#177 = DIRECTION ( 'NONE',  ( 0.0000000000000000000, 0.0000000000000000000, 1.000000000000000000 ) ) ;
#178 = EDGE_LOOP ( 'NONE', ( #143, #62, #130, #155 ) ) ;
#179 = CARTESIAN_POINT ( 'NONE',  ( 1191.545691095387200, 359.5544348093111500, -5.000000000000004400 ) ) ;
#180 = DIRECTION ( 'NONE',  ( -1.000000000000000000, -0.0000000000000000000, -0.0000000000000000000 ) ) ;
#181 = SURFACE_STYLE_FILL_AREA ( #6 ) ;
#182 = DIRECTION ( 'NONE',  ( 0.0000000000000000000, -1.000000000000000000, -1.224646799147353900E-016 ) ) ;
#183 = CARTESIAN_POINT ( 'NONE',  ( 1191.545691095387200, 359.5544348093111500, 0.0000000000000000000 ) ) ;
#184 =( NAMED_UNIT ( * ) SI_UNIT ( $, .STERADIAN. ) SOLID_ANGLE_UNIT ( ) );
#185 = DIRECTION ( 'NONE',  ( -1.000000000000000000, -0.0000000000000000000, -0.0000000000000000000 ) ) ;
#186 = LINE ( 'NONE', #179, #77 ) ;
ENDSEC;
END-ISO-10303-21;
