ISO-10303-21;
HEADER;
FILE_DESCRIPTION (( 'STEP AP214' ),
    '1' );
FILE_NAME ('100023.STEP',
    '2019-04-22T01:17:04',
    ( '' ),
    ( '' ),
    'SwSTEP 2.0',
    'SolidWorks 2016',
    '' );
FILE_SCHEMA (( 'AUTOMOTIVE_DESIGN' ));
ENDSEC;

DATA;
#1 = ORIENTED_EDGE ( 'NONE', *, *, #68, .F. ) ;
#2 = DIRECTION ( 'NONE',  ( 0.0000000000000000000, 1.000000000000000000, 0.0000000000000000000 ) ) ;
#3 = VERTEX_POINT ( 'NONE', #102 ) ;
#4 = EDGE_CURVE ( 'NONE', #3, #96, #66, .T. ) ;
#5 = SURFACE_SIDE_STYLE ('',( #70 ) ) ;
#6 = AXIS2_PLACEMENT_3D ( 'NONE', #176, #82, #180 ) ;
#7 = CARTESIAN_POINT ( 'NONE',  ( 346.9791158000213000, 134.7012313164126500, 0.0000000000000000000 ) ) ;
#8 = CARTESIAN_POINT ( 'NONE',  ( 327.3856881399897200, 134.7012313164126500, 0.0000000000000000000 ) ) ;
#9 = PRODUCT_CONTEXT ( 'NONE', #91, 'mechanical' ) ;
#10 = ADVANCED_FACE ( 'NONE', ( #14 ), #52, .T. ) ;
#11 = CIRCLE ( 'NONE', #150, 6.000000000000005300 ) ;
#12 = CIRCLE ( 'NONE', #6, 6.000000000000005300 ) ;
#13 = UNCERTAINTY_MEASURE_WITH_UNIT (LENGTH_MEASURE( 1.000000000000000100E-005 ), #119, 'distance_accuracy_value', 'NONE');
#14 = FACE_OUTER_BOUND ( 'NONE', #47, .T. ) ;
#15 = EDGE_CURVE ( 'NONE', #169, #96, #16, .T. ) ;
#16 = CIRCLE ( 'NONE', #41, 6.000000000000005300 ) ;
#17 = FILL_AREA_STYLE ('',( #115 ) ) ;
#18 = CYLINDRICAL_SURFACE ( 'NONE', #179, 6.000000000000005300 ) ;
#19 = EDGE_LOOP ( 'NONE', ( #163, #78, #90, #1, #105 ) ) ;
#20 = CARTESIAN_POINT ( 'NONE',  ( 345.8591158000213000, 134.7012313164126500, 6.000000000000005300 ) ) ;
#21 = DIRECTION ( 'NONE',  ( -1.000000000000000000, -0.0000000000000000000, -0.0000000000000000000 ) ) ;
#22 = CARTESIAN_POINT ( 'NONE',  ( 338.3446477149149100, 134.7012313164126500, 0.0000000000000000000 ) ) ;
#23 = COLOUR_RGB ( '',1.000000000000000000, 1.000000000000000000, 1.000000000000000000 ) ;
#24 = ORIENTED_EDGE ( 'NONE', *, *, #93, .F. ) ;
#25 = EDGE_CURVE ( 'NONE', #31, #72, #143, .T. ) ;
#26 = PRESENTATION_LAYER_ASSIGNMENT (  '', '', ( #138 ) ) ;
#27 = EDGE_LOOP ( 'NONE', ( #110, #184, #53, #144, #128 ) ) ;
#28 = CARTESIAN_POINT ( 'NONE',  ( 345.8591158000213000, 134.7012313164126500, 0.0000000000000000000 ) ) ;
#29 = CARTESIAN_POINT ( 'NONE',  ( 346.9791158000213000, 134.7012313164126500, 6.000000000000005300 ) ) ;
#30 = DIRECTION ( 'NONE',  ( -0.0000000000000000000, 0.0000000000000000000, -1.000000000000000000 ) ) ;
#31 = VERTEX_POINT ( 'NONE', #20 ) ;
#32 = DIRECTION ( 'NONE',  ( 0.0000000000000000000, 0.0000000000000000000, 1.000000000000000000 ) ) ;
#33 =( NAMED_UNIT ( * ) PLANE_ANGLE_UNIT ( ) SI_UNIT ( $, .RADIAN. ) );
#34 = CARTESIAN_POINT ( 'NONE',  ( 327.3856881399897200, 134.7012313164126500, 0.0000000000000000000 ) ) ;
#35 = APPLICATION_PROTOCOL_DEFINITION ( 'draft international standard', 'automotive_design', 1998, #91 ) ;
#36 = DIRECTION ( 'NONE',  ( 0.0000000000000000000, 0.0000000000000000000, 1.000000000000000000 ) ) ;
#37 = CARTESIAN_POINT ( 'NONE',  ( 338.3446477149149100, 134.7012313164126500, 0.0000000000000000000 ) ) ;
#38 = CLOSED_SHELL ( 'NONE', ( #167, #165, #10, #108, #151 ) ) ;
#39 = ORIENTED_EDGE ( 'NONE', *, *, #131, .F. ) ;
#40 = ADVANCED_BREP_SHAPE_REPRESENTATION ( '100023', ( #61, #129 ), #171 ) ;
#41 = AXIS2_PLACEMENT_3D ( 'NONE', #174, #98, #175 ) ;
#42 = AXIS2_PLACEMENT_3D ( 'NONE', #37, #136, #149 ) ;
#43 = DIRECTION ( 'NONE',  ( 0.0000000000000000000, 1.224646799147353200E-016, -1.000000000000000000 ) ) ;
#44 = CIRCLE ( 'NONE', #42, 10.51446808510642100 ) ;
#45 = DIRECTION ( 'NONE',  ( -1.000000000000000000, -0.0000000000000000000, -0.0000000000000000000 ) ) ;
#46 = PLANE ( 'NONE',  #182 ) ;
#47 = EDGE_LOOP ( 'NONE', ( #178, #173, #141, #24 ) ) ;
#48 = DIRECTION ( 'NONE',  ( 0.0000000000000000000, 0.0000000000000000000, 1.000000000000000000 ) ) ;
#49 = DIRECTION ( 'NONE',  ( 0.0000000000000000000, 0.0000000000000000000, 1.000000000000000000 ) ) ;
#50 = LINE ( 'NONE', #104, #73 ) ;
#51 =( LENGTH_UNIT ( ) NAMED_UNIT ( * ) SI_UNIT ( .MILLI., .METRE. ) );
#52 = SPHERICAL_SURFACE ( 'NONE', #124, 10.51446808510642100 ) ;
#53 = ORIENTED_EDGE ( 'NONE', *, *, #93, .T. ) ;
#54 = APPLICATION_PROTOCOL_DEFINITION ( 'draft international standard', 'automotive_design', 1998, #126 ) ;
#55 = EDGE_CURVE ( 'NONE', #72, #31, #186, .T. ) ;
#56 = FACE_OUTER_BOUND ( 'NONE', #19, .T. ) ;
#57 = ORIENTED_EDGE ( 'NONE', *, *, #55, .T. ) ;
#58 = SHAPE_DEFINITION_REPRESENTATION ( #154, #40 ) ;
#59 = FACE_OUTER_BOUND ( 'NONE', #112, .T. ) ;
#60 = CARTESIAN_POINT ( 'NONE',  ( 345.8591158000213000, 134.7012313164126500, 0.0000000000000000000 ) ) ;
#61 = MANIFOLD_SOLID_BREP ( 'Ðý×ª1', #38 ) ;
#62 = FACE_OUTER_BOUND ( 'NONE', #27, .T. ) ;
#63 = AXIS2_PLACEMENT_3D ( 'NONE', #28, #85, #118 ) ;
#64 = DIRECTION ( 'NONE',  ( 1.000000000000000000, 0.0000000000000000000, 0.0000000000000000000 ) ) ;
#65 = DIRECTION ( 'NONE',  ( 0.0000000000000000000, 0.0000000000000000000, -1.000000000000000000 ) ) ;
#66 = CIRCLE ( 'NONE', #99, 10.51446808510642100 ) ;
#67 = DIRECTION ( 'NONE',  ( 0.0000000000000000000, 1.000000000000000000, 0.0000000000000000000 ) ) ;
#68 = EDGE_CURVE ( 'NONE', #71, #31, #170, .T. ) ;
#69 = CARTESIAN_POINT ( 'NONE',  ( 345.8591158000213000, 134.7012313164126500, 0.0000000000000000000 ) ) ;
#70 = SURFACE_STYLE_FILL_AREA ( #162 ) ;
#71 = VERTEX_POINT ( 'NONE', #29 ) ;
#72 = VERTEX_POINT ( 'NONE', #130 ) ;
#73 = VECTOR ( 'NONE', #21, 1000.000000000000000 ) ;
#74 =( GEOMETRIC_REPRESENTATION_CONTEXT ( 3 ) GLOBAL_UNCERTAINTY_ASSIGNED_CONTEXT ( ( #13 ) ) GLOBAL_UNIT_ASSIGNED_CONTEXT ( ( #119, #33, #142 ) ) REPRESENTATION_CONTEXT ( 'NONE', 'WORKASPACE' ) );
#75 = AXIS2_PLACEMENT_3D ( 'NONE', #60, #89, #32 ) ;
#76 = ORIENTED_EDGE ( 'NONE', *, *, #15, .F. ) ;
#77 = DIRECTION ( 'NONE',  ( 0.0000000000000000000, 1.000000000000000000, 1.224646799147353200E-016 ) ) ;
#78 = ORIENTED_EDGE ( 'NONE', *, *, #114, .T. ) ;
#79 = CARTESIAN_POINT ( 'NONE',  ( 346.9791158000213000, 140.7012313164126500, 0.0000000000000000000 ) ) ;
#80 =( NAMED_UNIT ( * ) SI_UNIT ( $, .STERADIAN. ) SOLID_ANGLE_UNIT ( ) );
#81 = CARTESIAN_POINT ( 'NONE',  ( 346.9791158000213000, 128.7012313164126500, -7.347880794884123700E-016 ) ) ;
#82 = DIRECTION ( 'NONE',  ( -1.000000000000000000, -0.0000000000000000000, -0.0000000000000000000 ) ) ;
#83 = SURFACE_STYLE_FILL_AREA ( #17 ) ;
#84 = CIRCLE ( 'NONE', #140, 6.000000000000005300 ) ;
#85 = DIRECTION ( 'NONE',  ( -1.000000000000000000, -0.0000000000000000000, -0.0000000000000000000 ) ) ;
#86 = PRESENTATION_STYLE_ASSIGNMENT (( #157 ) ) ;
#87 = MECHANICAL_DESIGN_GEOMETRIC_PRESENTATION_REPRESENTATION (  '', ( #138 ), #74 ) ;
#88 = PRODUCT_DEFINITION_CONTEXT ( 'detailed design', #126, 'design' ) ;
#89 = DIRECTION ( 'NONE',  ( -1.000000000000000000, -0.0000000000000000000, -0.0000000000000000000 ) ) ;
#90 = ORIENTED_EDGE ( 'NONE', *, *, #25, .F. ) ;
#91 = APPLICATION_CONTEXT ( 'automotive_design' ) ;
#92 = DIRECTION ( 'NONE',  ( 1.000000000000000000, 0.0000000000000000000, 0.0000000000000000000 ) ) ;
#93 = EDGE_CURVE ( 'NONE', #96, #71, #11, .T. ) ;
#94 = SURFACE_STYLE_USAGE ( .BOTH. , #5 ) ;
#95 = COLOUR_RGB ( '',1.000000000000000000, 1.000000000000000000, 1.000000000000000000 ) ;
#96 = VERTEX_POINT ( 'NONE', #81 ) ;
#97 = VECTOR ( 'NONE', #45, 1000.000000000000000 ) ;
#98 = DIRECTION ( 'NONE',  ( -1.000000000000000000, -0.0000000000000000000, -0.0000000000000000000 ) ) ;
#99 = AXIS2_PLACEMENT_3D ( 'NONE', #116, #43, #77 ) ;
#100 = CARTESIAN_POINT ( 'NONE',  ( 327.3856881399897200, 134.7012313164126500, 6.000000000000005300 ) ) ;
#101 = FACE_OUTER_BOUND ( 'NONE', #153, .T. ) ;
#102 = CARTESIAN_POINT ( 'NONE',  ( 348.8591158000213000, 134.7012313164126500, 0.0000000000000000000 ) ) ;
#103 = DIRECTION ( 'NONE',  ( -1.000000000000000000, -0.0000000000000000000, -0.0000000000000000000 ) ) ;
#104 = CARTESIAN_POINT ( 'NONE',  ( 327.3856881399897200, 134.7012313164126500, -6.000000000000005300 ) ) ;
#105 = ORIENTED_EDGE ( 'NONE', *, *, #185, .T. ) ;
#106 = DIRECTION ( 'NONE',  ( -1.000000000000000000, -0.0000000000000000000, -0.0000000000000000000 ) ) ;
#107 =( NAMED_UNIT ( * ) PLANE_ANGLE_UNIT ( ) SI_UNIT ( $, .RADIAN. ) );
#108 = ADVANCED_FACE ( 'NONE', ( #62 ), #18, .T. ) ;
#109 = PRESENTATION_LAYER_ASSIGNMENT (  '', '', ( #122 ) ) ;
#110 = ORIENTED_EDGE ( 'NONE', *, *, #114, .F. ) ;
#111 = AXIS2_PLACEMENT_3D ( 'NONE', #8, #121, #123 ) ;
#112 = EDGE_LOOP ( 'NONE', ( #133, #57 ) ) ;
#113 = PRODUCT ( '100023', '100023', '', ( #9 ) ) ;
#114 = EDGE_CURVE ( 'NONE', #169, #72, #50, .T. ) ;
#115 = FILL_AREA_STYLE_COLOUR ( '', #95 ) ;
#116 = CARTESIAN_POINT ( 'NONE',  ( 338.3446477149149100, 134.7012313164126500, 0.0000000000000000000 ) ) ;
#117 = UNCERTAINTY_MEASURE_WITH_UNIT (LENGTH_MEASURE( 1.000000000000000100E-005 ), #51, 'distance_accuracy_value', 'NONE');
#118 = DIRECTION ( 'NONE',  ( 0.0000000000000000000, 0.0000000000000000000, 1.000000000000000000 ) ) ;
#119 =( LENGTH_UNIT ( ) NAMED_UNIT ( * ) SI_UNIT ( .MILLI., .METRE. ) );
#120 = SPHERICAL_SURFACE ( 'NONE', #152, 10.51446808510642100 ) ;
#121 = DIRECTION ( 'NONE',  ( -1.000000000000000000, -0.0000000000000000000, -0.0000000000000000000 ) ) ;
#122 = STYLED_ITEM ( 'NONE', ( #132 ), #40 ) ;
#123 = DIRECTION ( 'NONE',  ( 0.0000000000000000000, 0.0000000000000000000, 1.000000000000000000 ) ) ;
#124 = AXIS2_PLACEMENT_3D ( 'NONE', #156, #30, #2 ) ;
#125 = CARTESIAN_POINT ( 'NONE',  ( 0.0000000000000000000, 0.0000000000000000000, 0.0000000000000000000 ) ) ;
#126 = APPLICATION_CONTEXT ( 'automotive_design' ) ;
#127 = VERTEX_POINT ( 'NONE', #79 ) ;
#128 = ORIENTED_EDGE ( 'NONE', *, *, #55, .F. ) ;
#129 = AXIS2_PLACEMENT_3D ( 'NONE', #125, #49, #92 ) ;
#130 = CARTESIAN_POINT ( 'NONE',  ( 345.8591158000213000, 134.7012313164126500, -6.000000000000005300 ) ) ;
#131 = EDGE_CURVE ( 'NONE', #3, #127, #44, .T. ) ;
#132 = PRESENTATION_STYLE_ASSIGNMENT (( #94 ) ) ;
#133 = ORIENTED_EDGE ( 'NONE', *, *, #25, .T. ) ;
#134 = CARTESIAN_POINT ( 'NONE',  ( 346.9791158000213000, 134.7012313164126500, -6.000000000000005300 ) ) ;
#135 =( LENGTH_UNIT ( ) NAMED_UNIT ( * ) SI_UNIT ( .MILLI., .METRE. ) );
#136 = DIRECTION ( 'NONE',  ( -0.0000000000000000000, 0.0000000000000000000, 1.000000000000000000 ) ) ;
#137 = DIRECTION ( 'NONE',  ( -0.0000000000000000000, 0.0000000000000000000, -1.000000000000000000 ) ) ;
#138 = STYLED_ITEM ( 'NONE', ( #86 ), #61 ) ;
#139 = PRODUCT_RELATED_PRODUCT_CATEGORY ( 'part', '', ( #113 ) ) ;
#140 = AXIS2_PLACEMENT_3D ( 'NONE', #147, #106, #177 ) ;
#141 = ORIENTED_EDGE ( 'NONE', *, *, #185, .F. ) ;
#142 =( NAMED_UNIT ( * ) SI_UNIT ( $, .STERADIAN. ) SOLID_ANGLE_UNIT ( ) );
#143 = CIRCLE ( 'NONE', #63, 6.000000000000005300 ) ;
#144 = ORIENTED_EDGE ( 'NONE', *, *, #68, .T. ) ;
#145 = PRODUCT_DEFINITION_FORMATION_WITH_SPECIFIED_SOURCE ( 'ÈÎºÎ', '', #113, .NOT_KNOWN. ) ;
#146 = SURFACE_SIDE_STYLE ('',( #83 ) ) ;
#147 = CARTESIAN_POINT ( 'NONE',  ( 346.9791158000213000, 134.7012313164126500, 0.0000000000000000000 ) ) ;
#148 = ORIENTED_EDGE ( 'NONE', *, *, #161, .F. ) ;
#149 = DIRECTION ( 'NONE',  ( 1.000000000000000000, 0.0000000000000000000, 0.0000000000000000000 ) ) ;
#150 = AXIS2_PLACEMENT_3D ( 'NONE', #7, #103, #36 ) ;
#151 = ADVANCED_FACE ( 'NONE', ( #59 ), #46, .F. ) ;
#152 = AXIS2_PLACEMENT_3D ( 'NONE', #22, #137, #67 ) ;
#153 = EDGE_LOOP ( 'NONE', ( #39, #183, #76, #148 ) ) ;
#154 = PRODUCT_DEFINITION_SHAPE ( 'NONE', 'NONE',  #172 ) ;
#155 = MECHANICAL_DESIGN_GEOMETRIC_PRESENTATION_REPRESENTATION (  '', ( #122 ), #158 ) ;
#156 = CARTESIAN_POINT ( 'NONE',  ( 338.3446477149149100, 134.7012313164126500, 0.0000000000000000000 ) ) ;
#157 = SURFACE_STYLE_USAGE ( .BOTH. , #146 ) ;
#158 =( GEOMETRIC_REPRESENTATION_CONTEXT ( 3 ) GLOBAL_UNCERTAINTY_ASSIGNED_CONTEXT ( ( #166 ) ) GLOBAL_UNIT_ASSIGNED_CONTEXT ( ( #135, #107, #80 ) ) REPRESENTATION_CONTEXT ( 'NONE', 'WORKASPACE' ) );
#159 =( NAMED_UNIT ( * ) SI_UNIT ( $, .STERADIAN. ) SOLID_ANGLE_UNIT ( ) );
#160 = DIRECTION ( 'NONE',  ( -1.000000000000000000, -0.0000000000000000000, -0.0000000000000000000 ) ) ;
#161 = EDGE_CURVE ( 'NONE', #127, #169, #84, .T. ) ;
#162 = FILL_AREA_STYLE ('',( #181 ) ) ;
#163 = ORIENTED_EDGE ( 'NONE', *, *, #161, .T. ) ;
#164 =( NAMED_UNIT ( * ) PLANE_ANGLE_UNIT ( ) SI_UNIT ( $, .RADIAN. ) );
#165 = ADVANCED_FACE ( 'NONE', ( #101 ), #120, .T. ) ;
#166 = UNCERTAINTY_MEASURE_WITH_UNIT (LENGTH_MEASURE( 1.000000000000000100E-005 ), #135, 'distance_accuracy_value', 'NONE');
#167 = ADVANCED_FACE ( 'NONE', ( #56 ), #168, .T. ) ;
#168 = CYLINDRICAL_SURFACE ( 'NONE', #111, 6.000000000000005300 ) ;
#169 = VERTEX_POINT ( 'NONE', #134 ) ;
#170 = LINE ( 'NONE', #100, #97 ) ;
#171 =( GEOMETRIC_REPRESENTATION_CONTEXT ( 3 ) GLOBAL_UNCERTAINTY_ASSIGNED_CONTEXT ( ( #117 ) ) GLOBAL_UNIT_ASSIGNED_CONTEXT ( ( #51, #164, #159 ) ) REPRESENTATION_CONTEXT ( 'NONE', 'WORKASPACE' ) );
#172 = PRODUCT_DEFINITION ( 'Î´Öª', '', #145, #88 ) ;
#173 = ORIENTED_EDGE ( 'NONE', *, *, #131, .T. ) ;
#174 = CARTESIAN_POINT ( 'NONE',  ( 346.9791158000213000, 134.7012313164126500, 0.0000000000000000000 ) ) ;
#175 = DIRECTION ( 'NONE',  ( 0.0000000000000000000, 0.0000000000000000000, 1.000000000000000000 ) ) ;
#176 = CARTESIAN_POINT ( 'NONE',  ( 346.9791158000213000, 134.7012313164126500, 0.0000000000000000000 ) ) ;
#177 = DIRECTION ( 'NONE',  ( 0.0000000000000000000, 0.0000000000000000000, 1.000000000000000000 ) ) ;
#178 = ORIENTED_EDGE ( 'NONE', *, *, #4, .F. ) ;
#179 = AXIS2_PLACEMENT_3D ( 'NONE', #34, #160, #48 ) ;
#180 = DIRECTION ( 'NONE',  ( 0.0000000000000000000, 0.0000000000000000000, 1.000000000000000000 ) ) ;
#181 = FILL_AREA_STYLE_COLOUR ( '', #23 ) ;
#182 = AXIS2_PLACEMENT_3D ( 'NONE', #69, #64, #65 ) ;
#183 = ORIENTED_EDGE ( 'NONE', *, *, #4, .T. ) ;
#184 = ORIENTED_EDGE ( 'NONE', *, *, #15, .T. ) ;
#185 = EDGE_CURVE ( 'NONE', #71, #127, #12, .T. ) ;
#186 = CIRCLE ( 'NONE', #75, 6.000000000000005300 ) ;
ENDSEC;
END-ISO-10303-21;
