ISO-10303-21;
HEADER;
FILE_DESCRIPTION (( 'STEP AP214' ),
    '1' );
FILE_NAME ('100027.STEP',
    '2019-04-22T07:58:42',
    ( '' ),
    ( '' ),
    'SwSTEP 2.0',
    'SolidWorks 2016',
    '' );
FILE_SCHEMA (( 'AUTOMOTIVE_DESIGN' ));
ENDSEC;

DATA;
#1 = FACE_OUTER_BOUND ( 'NONE', #115, .T. ) ;
#2 = ORIENTED_EDGE ( 'NONE', *, *, #180, .T. ) ;
#3 = AXIS2_PLACEMENT_3D ( 'NONE', #57, #18, #111 ) ;
#4 = DIRECTION ( 'NONE',  ( 0.0000000000000000000, 0.0000000000000000000, 1.000000000000000000 ) ) ;
#5 = CARTESIAN_POINT ( 'NONE',  ( 628.3016452517540500, 182.4354400001510900, 0.0000000000000000000 ) ) ;
#6 = EDGE_CURVE ( 'NONE', #58, #16, #34, .T. ) ;
#7 = VECTOR ( 'NONE', #163, 1000.000000000000000 ) ;
#8 = FILL_AREA_STYLE_COLOUR ( '', #80 ) ;
#9 = CARTESIAN_POINT ( 'NONE',  ( 629.8016452517540500, 190.4354400001510600, 0.0000000000000000000 ) ) ;
#10 = DIRECTION ( 'NONE',  ( 0.0000000000000000000, 1.000000000000000000, 1.224646799147353200E-016 ) ) ;
#11 = STYLED_ITEM ( 'NONE', ( #147 ), #24 ) ;
#12 = DIRECTION ( 'NONE',  ( 0.0000000000000000000, 1.000000000000000000, 0.0000000000000000000 ) ) ;
#13 = VERTEX_POINT ( 'NONE', #21 ) ;
#14 = AXIS2_PLACEMENT_3D ( 'NONE', #5, #22, #90 ) ;
#15 = VERTEX_POINT ( 'NONE', #72 ) ;
#16 = VERTEX_POINT ( 'NONE', #98 ) ;
#17 = LINE ( 'NONE', #164, #139 ) ;
#18 = DIRECTION ( 'NONE',  ( -0.0000000000000000000, 0.0000000000000000000, 1.000000000000000000 ) ) ;
#19 = ORIENTED_EDGE ( 'NONE', *, *, #126, .T. ) ;
#20 = COLOUR_RGB ( '',1.000000000000000000, 1.000000000000000000, 1.000000000000000000 ) ;
#21 = CARTESIAN_POINT ( 'NONE',  ( 629.8016452517540500, 182.4354400001510900, -7.999999999999979600 ) ) ;
#22 = DIRECTION ( 'NONE',  ( -1.000000000000000000, -0.0000000000000000000, -0.0000000000000000000 ) ) ;
#23 = DIRECTION ( 'NONE',  ( -1.000000000000000000, -0.0000000000000000000, -0.0000000000000000000 ) ) ;
#24 = ADVANCED_BREP_SHAPE_REPRESENTATION ( '100027', ( #176, #158 ), #118 ) ;
#25 = DIRECTION ( 'NONE',  ( 0.0000000000000000000, 0.0000000000000000000, 1.000000000000000000 ) ) ;
#26 = CARTESIAN_POINT ( 'NONE',  ( 629.8016452517540500, 182.4354400001510900, 0.0000000000000000000 ) ) ;
#27 = DIRECTION ( 'NONE',  ( 0.0000000000000000000, 0.0000000000000000000, 1.000000000000000000 ) ) ;
#28 = SURFACE_STYLE_USAGE ( .BOTH. , #168 ) ;
#29 = UNCERTAINTY_MEASURE_WITH_UNIT (LENGTH_MEASURE( 1.000000000000000100E-005 ), #121, 'distance_accuracy_value', 'NONE');
#30 = SHAPE_DEFINITION_REPRESENTATION ( #129, #24 ) ;
#31 = AXIS2_PLACEMENT_3D ( 'NONE', #179, #106, #12 ) ;
#32 = PRODUCT_CONTEXT ( 'NONE', #138, 'mechanical' ) ;
#33 = PRODUCT_RELATED_PRODUCT_CATEGORY ( 'part', '', ( #133 ) ) ;
#34 = CIRCLE ( 'NONE', #157, 7.999999999999979600 ) ;
#35 = CARTESIAN_POINT ( 'NONE',  ( 629.8016452517540500, 182.4354400001510900, 0.0000000000000000000 ) ) ;
#36 = ORIENTED_EDGE ( 'NONE', *, *, #113, .F. ) ;
#37 = CARTESIAN_POINT ( 'NONE',  ( 629.8016452517540500, 174.4354400001510900, -9.797174393178804000E-016 ) ) ;
#38 = PRODUCT_DEFINITION_CONTEXT ( 'detailed design', #97, 'design' ) ;
#39 = CYLINDRICAL_SURFACE ( 'NONE', #51, 7.999999999999979600 ) ;
#40 = DIRECTION ( 'NONE',  ( 0.0000000000000000000, 1.224646799147353200E-016, -1.000000000000000000 ) ) ;
#41 = CARTESIAN_POINT ( 'NONE',  ( 629.8016452517540500, 182.4354400001510900, 0.0000000000000000000 ) ) ;
#42 = SPHERICAL_SURFACE ( 'NONE', #56, 16.28809523809526600 ) ;
#43 = CIRCLE ( 'NONE', #67, 7.999999999999979600 ) ;
#44 = ORIENTED_EDGE ( 'NONE', *, *, #126, .F. ) ;
#45 = APPLICATION_PROTOCOL_DEFINITION ( 'draft international standard', 'automotive_design', 1998, #97 ) ;
#46 = EDGE_CURVE ( 'NONE', #128, #172, #119, .T. ) ;
#47 = AXIS2_PLACEMENT_3D ( 'NONE', #78, #60, #177 ) ;
#48 = SPHERICAL_SURFACE ( 'NONE', #31, 16.28809523809526600 ) ;
#49 = CARTESIAN_POINT ( 'NONE',  ( 631.9016452517540800, 182.4354400001510900, 0.0000000000000000000 ) ) ;
#50 =( LENGTH_UNIT ( ) NAMED_UNIT ( * ) SI_UNIT ( .MILLI., .METRE. ) );
#51 = AXIS2_PLACEMENT_3D ( 'NONE', #127, #173, #4 ) ;
#52 = DIRECTION ( 'NONE',  ( -1.000000000000000000, -0.0000000000000000000, -0.0000000000000000000 ) ) ;
#53 = DIRECTION ( 'NONE',  ( -1.000000000000000000, -0.0000000000000000000, -0.0000000000000000000 ) ) ;
#54 = PRESENTATION_LAYER_ASSIGNMENT (  '', '', ( #11 ) ) ;
#55 = ORIENTED_EDGE ( 'NONE', *, *, #162, .F. ) ;
#56 = AXIS2_PLACEMENT_3D ( 'NONE', #74, #100, #76 ) ;
#57 = CARTESIAN_POINT ( 'NONE',  ( 615.6135500136588200, 182.4354400001510900, 0.0000000000000000000 ) ) ;
#58 = VERTEX_POINT ( 'NONE', #37 ) ;
#59 = DIRECTION ( 'NONE',  ( -1.000000000000000000, -0.0000000000000000000, -0.0000000000000000000 ) ) ;
#60 = DIRECTION ( 'NONE',  ( -1.000000000000000000, -0.0000000000000000000, -0.0000000000000000000 ) ) ;
#61 = EDGE_CURVE ( 'NONE', #15, #88, #124, .T. ) ;
#62 = ORIENTED_EDGE ( 'NONE', *, *, #149, .T. ) ;
#63 = SURFACE_STYLE_FILL_AREA ( #117 ) ;
#64 = APPLICATION_PROTOCOL_DEFINITION ( 'draft international standard', 'automotive_design', 1998, #138 ) ;
#65 =( NAMED_UNIT ( * ) PLANE_ANGLE_UNIT ( ) SI_UNIT ( $, .RADIAN. ) );
#66 = FILL_AREA_STYLE ('',( #153 ) ) ;
#67 = AXIS2_PLACEMENT_3D ( 'NONE', #148, #52, #27 ) ;
#68 = ADVANCED_FACE ( 'NONE', ( #1 ), #42, .T. ) ;
#69 = EDGE_LOOP ( 'NONE', ( #75, #160, #55, #125 ) ) ;
#70 = AXIS2_PLACEMENT_3D ( 'NONE', #26, #53, #134 ) ;
#71 = FACE_OUTER_BOUND ( 'NONE', #144, .T. ) ;
#72 = CARTESIAN_POINT ( 'NONE',  ( 628.3016452517540500, 182.4354400001510900, 7.999999999999979600 ) ) ;
#73 = PRESENTATION_LAYER_ASSIGNMENT (  '', '', ( #104 ) ) ;
#74 = CARTESIAN_POINT ( 'NONE',  ( 615.6135500136588200, 182.4354400001510900, 0.0000000000000000000 ) ) ;
#75 = ORIENTED_EDGE ( 'NONE', *, *, #180, .F. ) ;
#76 = DIRECTION ( 'NONE',  ( 0.0000000000000000000, 1.000000000000000000, 0.0000000000000000000 ) ) ;
#77 = CARTESIAN_POINT ( 'NONE',  ( 624.5763766313917800, 182.4354400001510900, -7.999999999999979600 ) ) ;
#78 = CARTESIAN_POINT ( 'NONE',  ( 628.3016452517540500, 182.4354400001510900, 0.0000000000000000000 ) ) ;
#79 = CARTESIAN_POINT ( 'NONE',  ( 615.6135500136588200, 182.4354400001510900, 0.0000000000000000000 ) ) ;
#80 = COLOUR_RGB ( '',1.000000000000000000, 1.000000000000000000, 1.000000000000000000 ) ;
#81 = SURFACE_STYLE_FILL_AREA ( #66 ) ;
#82 = DIRECTION ( 'NONE',  ( 1.000000000000000000, 0.0000000000000000000, 0.0000000000000000000 ) ) ;
#83 = AXIS2_PLACEMENT_3D ( 'NONE', #41, #151, #105 ) ;
#84 = CLOSED_SHELL ( 'NONE', ( #85, #68, #107, #186, #122 ) ) ;
#85 = ADVANCED_FACE ( 'NONE', ( #87 ), #39, .T. ) ;
#86 = AXIS2_PLACEMENT_3D ( 'NONE', #93, #23, #25 ) ;
#87 = FACE_OUTER_BOUND ( 'NONE', #95, .T. ) ;
#88 = VERTEX_POINT ( 'NONE', #94 ) ;
#89 = LINE ( 'NONE', #77, #7 ) ;
#90 = DIRECTION ( 'NONE',  ( 0.0000000000000000000, 0.0000000000000000000, 1.000000000000000000 ) ) ;
#91 = ORIENTED_EDGE ( 'NONE', *, *, #169, .F. ) ;
#92 = ORIENTED_EDGE ( 'NONE', *, *, #46, .F. ) ;
#93 = CARTESIAN_POINT ( 'NONE',  ( 624.5763766313917800, 182.4354400001510900, 0.0000000000000000000 ) ) ;
#94 = CARTESIAN_POINT ( 'NONE',  ( 628.3016452517540500, 182.4354400001510900, -7.999999999999979600 ) ) ;
#95 = EDGE_LOOP ( 'NONE', ( #99, #159, #141, #171, #155 ) ) ;
#96 = FACE_OUTER_BOUND ( 'NONE', #166, .T. ) ;
#97 = APPLICATION_CONTEXT ( 'automotive_design' ) ;
#98 = CARTESIAN_POINT ( 'NONE',  ( 629.8016452517540500, 182.4354400001510900, 7.999999999999979600 ) ) ;
#99 = ORIENTED_EDGE ( 'NONE', *, *, #140, .T. ) ;
#100 = DIRECTION ( 'NONE',  ( -0.0000000000000000000, 0.0000000000000000000, -1.000000000000000000 ) ) ;
#101 = DIRECTION ( 'NONE',  ( -1.000000000000000000, -0.0000000000000000000, -0.0000000000000000000 ) ) ;
#102 = DIRECTION ( 'NONE',  ( 1.000000000000000000, 0.0000000000000000000, 0.0000000000000000000 ) ) ;
#103 = DIRECTION ( 'NONE',  ( 0.0000000000000000000, 0.0000000000000000000, -1.000000000000000000 ) ) ;
#104 = STYLED_ITEM ( 'NONE', ( #156 ), #176 ) ;
#105 = DIRECTION ( 'NONE',  ( 0.0000000000000000000, 0.0000000000000000000, 1.000000000000000000 ) ) ;
#106 = DIRECTION ( 'NONE',  ( -0.0000000000000000000, 0.0000000000000000000, -1.000000000000000000 ) ) ;
#107 = ADVANCED_FACE ( 'NONE', ( #174 ), #48, .T. ) ;
#108 = AXIS2_PLACEMENT_3D ( 'NONE', #79, #40, #10 ) ;
#109 = UNCERTAINTY_MEASURE_WITH_UNIT (LENGTH_MEASURE( 1.000000000000000100E-005 ), #181, 'distance_accuracy_value', 'NONE');
#110 = CIRCLE ( 'NONE', #108, 16.28809523809526600 ) ;
#111 = DIRECTION ( 'NONE',  ( 1.000000000000000000, 0.0000000000000000000, 0.0000000000000000000 ) ) ;
#112 = SURFACE_STYLE_USAGE ( .BOTH. , #136 ) ;
#113 = EDGE_CURVE ( 'NONE', #13, #58, #43, .T. ) ;
#114 = CARTESIAN_POINT ( 'NONE',  ( 0.0000000000000000000, 0.0000000000000000000, 0.0000000000000000000 ) ) ;
#115 = EDGE_LOOP ( 'NONE', ( #92, #2, #36, #130 ) ) ;
#116 =( NAMED_UNIT ( * ) SI_UNIT ( $, .STERADIAN. ) SOLID_ANGLE_UNIT ( ) );
#117 = FILL_AREA_STYLE ('',( #8 ) ) ;
#118 =( GEOMETRIC_REPRESENTATION_CONTEXT ( 3 ) GLOBAL_UNCERTAINTY_ASSIGNED_CONTEXT ( ( #170 ) ) GLOBAL_UNIT_ASSIGNED_CONTEXT ( ( #50, #150, #146 ) ) REPRESENTATION_CONTEXT ( 'NONE', 'WORKASPACE' ) );
#119 = CIRCLE ( 'NONE', #3, 16.28809523809526600 ) ;
#120 = ORIENTED_EDGE ( 'NONE', *, *, #6, .T. ) ;
#121 =( LENGTH_UNIT ( ) NAMED_UNIT ( * ) SI_UNIT ( .MILLI., .METRE. ) );
#122 = ADVANCED_FACE ( 'NONE', ( #71 ), #152, .F. ) ;
#123 = MECHANICAL_DESIGN_GEOMETRIC_PRESENTATION_REPRESENTATION (  '', ( #104 ), #135 ) ;
#124 = CIRCLE ( 'NONE', #14, 7.999999999999979600 ) ;
#125 = ORIENTED_EDGE ( 'NONE', *, *, #6, .F. ) ;
#126 = EDGE_CURVE ( 'NONE', #88, #15, #161, .T. ) ;
#127 = CARTESIAN_POINT ( 'NONE',  ( 624.5763766313917800, 182.4354400001510900, 0.0000000000000000000 ) ) ;
#128 = VERTEX_POINT ( 'NONE', #49 ) ;
#129 = PRODUCT_DEFINITION_SHAPE ( 'NONE', 'NONE',  #154 ) ;
#130 = ORIENTED_EDGE ( 'NONE', *, *, #140, .F. ) ;
#131 =( NAMED_UNIT ( * ) PLANE_ANGLE_UNIT ( ) SI_UNIT ( $, .RADIAN. ) );
#132 = CARTESIAN_POINT ( 'NONE',  ( 628.3016452517540500, 182.4354400001510900, 0.0000000000000000000 ) ) ;
#133 = PRODUCT ( '100027', '100027', '', ( #32 ) ) ;
#134 = DIRECTION ( 'NONE',  ( 0.0000000000000000000, 0.0000000000000000000, 1.000000000000000000 ) ) ;
#135 =( GEOMETRIC_REPRESENTATION_CONTEXT ( 3 ) GLOBAL_UNCERTAINTY_ASSIGNED_CONTEXT ( ( #109 ) ) GLOBAL_UNIT_ASSIGNED_CONTEXT ( ( #181, #131, #116 ) ) REPRESENTATION_CONTEXT ( 'NONE', 'WORKASPACE' ) );
#136 = SURFACE_SIDE_STYLE ('',( #63 ) ) ;
#137 = ORIENTED_EDGE ( 'NONE', *, *, #61, .T. ) ;
#138 = APPLICATION_CONTEXT ( 'automotive_design' ) ;
#139 = VECTOR ( 'NONE', #101, 1000.000000000000000 ) ;
#140 = EDGE_CURVE ( 'NONE', #172, #13, #178, .T. ) ;
#141 = ORIENTED_EDGE ( 'NONE', *, *, #61, .F. ) ;
#142 =( GEOMETRIC_REPRESENTATION_CONTEXT ( 3 ) GLOBAL_UNCERTAINTY_ASSIGNED_CONTEXT ( ( #29 ) ) GLOBAL_UNIT_ASSIGNED_CONTEXT ( ( #121, #65, #167 ) ) REPRESENTATION_CONTEXT ( 'NONE', 'WORKASPACE' ) );
#143 = MECHANICAL_DESIGN_GEOMETRIC_PRESENTATION_REPRESENTATION (  '', ( #11 ), #142 ) ;
#144 = EDGE_LOOP ( 'NONE', ( #137, #19 ) ) ;
#145 = DIRECTION ( 'NONE',  ( 0.0000000000000000000, 0.0000000000000000000, 1.000000000000000000 ) ) ;
#146 =( NAMED_UNIT ( * ) SI_UNIT ( $, .STERADIAN. ) SOLID_ANGLE_UNIT ( ) );
#147 = PRESENTATION_STYLE_ASSIGNMENT (( #28 ) ) ;
#148 = CARTESIAN_POINT ( 'NONE',  ( 629.8016452517540500, 182.4354400001510900, 0.0000000000000000000 ) ) ;
#149 = EDGE_CURVE ( 'NONE', #16, #15, #17, .T. ) ;
#150 =( NAMED_UNIT ( * ) PLANE_ANGLE_UNIT ( ) SI_UNIT ( $, .RADIAN. ) );
#151 = DIRECTION ( 'NONE',  ( -1.000000000000000000, -0.0000000000000000000, -0.0000000000000000000 ) ) ;
#152 = PLANE ( 'NONE',  #184 ) ;
#153 = FILL_AREA_STYLE_COLOUR ( '', #20 ) ;
#154 = PRODUCT_DEFINITION ( 'Î´Öª', '', #165, #38 ) ;
#155 = ORIENTED_EDGE ( 'NONE', *, *, #162, .T. ) ;
#156 = PRESENTATION_STYLE_ASSIGNMENT (( #112 ) ) ;
#157 = AXIS2_PLACEMENT_3D ( 'NONE', #35, #59, #145 ) ;
#158 = AXIS2_PLACEMENT_3D ( 'NONE', #114, #185, #82 ) ;
#159 = ORIENTED_EDGE ( 'NONE', *, *, #169, .T. ) ;
#160 = ORIENTED_EDGE ( 'NONE', *, *, #46, .T. ) ;
#161 = CIRCLE ( 'NONE', #47, 7.999999999999979600 ) ;
#162 = EDGE_CURVE ( 'NONE', #16, #172, #183, .T. ) ;
#163 = DIRECTION ( 'NONE',  ( -1.000000000000000000, -0.0000000000000000000, -0.0000000000000000000 ) ) ;
#164 = CARTESIAN_POINT ( 'NONE',  ( 624.5763766313917800, 182.4354400001510900, 7.999999999999979600 ) ) ;
#165 = PRODUCT_DEFINITION_FORMATION_WITH_SPECIFIED_SOURCE ( 'ÈÎºÎ', '', #133, .NOT_KNOWN. ) ;
#166 = EDGE_LOOP ( 'NONE', ( #91, #182, #120, #62, #44 ) ) ;
#167 =( NAMED_UNIT ( * ) SI_UNIT ( $, .STERADIAN. ) SOLID_ANGLE_UNIT ( ) );
#168 = SURFACE_SIDE_STYLE ('',( #81 ) ) ;
#169 = EDGE_CURVE ( 'NONE', #13, #88, #89, .T. ) ;
#170 = UNCERTAINTY_MEASURE_WITH_UNIT (LENGTH_MEASURE( 1.000000000000000100E-005 ), #50, 'distance_accuracy_value', 'NONE');
#171 = ORIENTED_EDGE ( 'NONE', *, *, #149, .F. ) ;
#172 = VERTEX_POINT ( 'NONE', #9 ) ;
#173 = DIRECTION ( 'NONE',  ( -1.000000000000000000, -0.0000000000000000000, -0.0000000000000000000 ) ) ;
#174 = FACE_OUTER_BOUND ( 'NONE', #69, .T. ) ;
#175 = CYLINDRICAL_SURFACE ( 'NONE', #86, 7.999999999999979600 ) ;
#176 = MANIFOLD_SOLID_BREP ( 'Ðý×ª1', #84 ) ;
#177 = DIRECTION ( 'NONE',  ( 0.0000000000000000000, 0.0000000000000000000, 1.000000000000000000 ) ) ;
#178 = CIRCLE ( 'NONE', #70, 7.999999999999979600 ) ;
#179 = CARTESIAN_POINT ( 'NONE',  ( 615.6135500136588200, 182.4354400001510900, 0.0000000000000000000 ) ) ;
#180 = EDGE_CURVE ( 'NONE', #128, #58, #110, .T. ) ;
#181 =( LENGTH_UNIT ( ) NAMED_UNIT ( * ) SI_UNIT ( .MILLI., .METRE. ) );
#182 = ORIENTED_EDGE ( 'NONE', *, *, #113, .T. ) ;
#183 = CIRCLE ( 'NONE', #83, 7.999999999999979600 ) ;
#184 = AXIS2_PLACEMENT_3D ( 'NONE', #132, #102, #103 ) ;
#185 = DIRECTION ( 'NONE',  ( 0.0000000000000000000, 0.0000000000000000000, 1.000000000000000000 ) ) ;
#186 = ADVANCED_FACE ( 'NONE', ( #96 ), #175, .T. ) ;
ENDSEC;
END-ISO-10303-21;
