ISO-10303-21;
HEADER;
FILE_DESCRIPTION (( 'STEP AP214' ),
    '1' );
FILE_NAME ('100035.STEP',
    '2019-04-25T08:08:33',
    ( '' ),
    ( '' ),
    'SwSTEP 2.0',
    'SolidWorks 2016',
    '' );
FILE_SCHEMA (( 'AUTOMOTIVE_DESIGN' ));
ENDSEC;

DATA;
#1 = AXIS2_PLACEMENT_3D ( 'NONE', #151, #62, #20 ) ;
#2 = SURFACE_STYLE_FILL_AREA ( #112 ) ;
#3 = ORIENTED_EDGE ( 'NONE', *, *, #58, .T. ) ;
#4 = DIRECTION ( 'NONE',  ( -0.0000000000000000000, 0.0000000000000000000, 1.000000000000000000 ) ) ;
#5 = CARTESIAN_POINT ( 'NONE',  ( 557.5831211010877300, 188.8612059825992400, 0.0000000000000000000 ) ) ;
#6 = ADVANCED_FACE ( 'NONE', ( #166 ), #104, .T. ) ;
#7 = CARTESIAN_POINT ( 'NONE',  ( 555.3931211010877900, 188.8612059825992400, 0.0000000000000000000 ) ) ;
#8 = SHAPE_DEFINITION_REPRESENTATION ( #77, #35 ) ;
#9 = CARTESIAN_POINT ( 'NONE',  ( 533.7124992105405000, 188.8612059825991900, 0.0000000000000000000 ) ) ;
#10 = AXIS2_PLACEMENT_3D ( 'NONE', #125, #68, #14 ) ;
#11 = FACE_OUTER_BOUND ( 'NONE', #79, .T. ) ;
#12 = CARTESIAN_POINT ( 'NONE',  ( 557.5831211010877300, 188.8612059825992400, -9.999999999999980500 ) ) ;
#13 = SPHERICAL_SURFACE ( 'NONE', #54, 25.88062189054721100 ) ;
#14 = DIRECTION ( 'NONE',  ( 0.0000000000000000000, 0.0000000000000000000, -1.000000000000000000 ) ) ;
#15 = VERTEX_POINT ( 'NONE', #152 ) ;
#16 = DIRECTION ( 'NONE',  ( 0.0000000000000000000, 0.0000000000000000000, 1.000000000000000000 ) ) ;
#17 = CARTESIAN_POINT ( 'NONE',  ( 0.0000000000000000000, 0.0000000000000000000, 0.0000000000000000000 ) ) ;
#18 = CIRCLE ( 'NONE', #129, 9.999999999999980500 ) ;
#19 = PRODUCT_CONTEXT ( 'NONE', #45, 'mechanical' ) ;
#20 = DIRECTION ( 'NONE',  ( 0.0000000000000000000, 0.0000000000000000000, 1.000000000000000000 ) ) ;
#21 = ORIENTED_EDGE ( 'NONE', *, *, #58, .F. ) ;
#22 = CARTESIAN_POINT ( 'NONE',  ( 557.5831211010877300, 188.8612059825992400, 0.0000000000000000000 ) ) ;
#23 = EDGE_CURVE ( 'NONE', #75, #30, #33, .T. ) ;
#24 = ORIENTED_EDGE ( 'NONE', *, *, #120, .F. ) ;
#25 = ORIENTED_EDGE ( 'NONE', *, *, #126, .T. ) ;
#26 =( NAMED_UNIT ( * ) SI_UNIT ( $, .STERADIAN. ) SOLID_ANGLE_UNIT ( ) );
#27 = COLOUR_RGB ( '',1.000000000000000000, 1.000000000000000000, 1.000000000000000000 ) ;
#28 =( NAMED_UNIT ( * ) SI_UNIT ( $, .STERADIAN. ) SOLID_ANGLE_UNIT ( ) );
#29 = APPLICATION_PROTOCOL_DEFINITION ( 'draft international standard', 'automotive_design', 1998, #45 ) ;
#30 = VERTEX_POINT ( 'NONE', #64 ) ;
#31 =( GEOMETRIC_REPRESENTATION_CONTEXT ( 3 ) GLOBAL_UNCERTAINTY_ASSIGNED_CONTEXT ( ( #175 ) ) GLOBAL_UNIT_ASSIGNED_CONTEXT ( ( #177, #131, #163 ) ) REPRESENTATION_CONTEXT ( 'NONE', 'WORKASPACE' ) );
#32 = CARTESIAN_POINT ( 'NONE',  ( 550.7365353256348000, 188.8612059825992400, 0.0000000000000000000 ) ) ;
#33 = CIRCLE ( 'NONE', #1, 9.999999999999980500 ) ;
#34 = ORIENTED_EDGE ( 'NONE', *, *, #95, .F. ) ;
#35 = ADVANCED_BREP_SHAPE_REPRESENTATION ( '100035', ( #67, #99 ), #31 ) ;
#36 = FILL_AREA_STYLE_COLOUR ( '', #27 ) ;
#37 = DIRECTION ( 'NONE',  ( -1.000000000000000000, -0.0000000000000000000, -0.0000000000000000000 ) ) ;
#38 = PRESENTATION_STYLE_ASSIGNMENT (( #158 ) ) ;
#39 = ADVANCED_FACE ( 'NONE', ( #165 ), #133, .T. ) ;
#40 = CARTESIAN_POINT ( 'NONE',  ( 550.7365353256348000, 188.8612059825992400, -9.999999999999980500 ) ) ;
#41 = ADVANCED_FACE ( 'NONE', ( #11 ), #106, .F. ) ;
#42 = DIRECTION ( 'NONE',  ( 0.0000000000000000000, 0.0000000000000000000, 1.000000000000000000 ) ) ;
#43 = ORIENTED_EDGE ( 'NONE', *, *, #70, .T. ) ;
#44 =( NAMED_UNIT ( * ) PLANE_ANGLE_UNIT ( ) SI_UNIT ( $, .RADIAN. ) );
#45 = APPLICATION_CONTEXT ( 'automotive_design' ) ;
#46 = ORIENTED_EDGE ( 'NONE', *, *, #23, .T. ) ;
#47 = CIRCLE ( 'NONE', #153, 9.999999999999980500 ) ;
#48 = PRESENTATION_STYLE_ASSIGNMENT (( #59 ) ) ;
#49 = ORIENTED_EDGE ( 'NONE', *, *, #120, .T. ) ;
#50 = CARTESIAN_POINT ( 'NONE',  ( 533.7124992105405000, 188.8612059825991900, 0.0000000000000000000 ) ) ;
#51 =( LENGTH_UNIT ( ) NAMED_UNIT ( * ) SI_UNIT ( .MILLI., .METRE. ) );
#52 = MECHANICAL_DESIGN_GEOMETRIC_PRESENTATION_REPRESENTATION (  '', ( #90 ), #149 ) ;
#53 = AXIS2_PLACEMENT_3D ( 'NONE', #32, #135, #78 ) ;
#54 = AXIS2_PLACEMENT_3D ( 'NONE', #161, #154, #107 ) ;
#55 = CARTESIAN_POINT ( 'NONE',  ( 555.3931211010877900, 188.8612059825992400, 9.999999999999980500 ) ) ;
#56 = CARTESIAN_POINT ( 'NONE',  ( 555.3931211010877900, 188.8612059825992400, -9.999999999999980500 ) ) ;
#57 = CLOSED_SHELL ( 'NONE', ( #6, #39, #159, #87, #41 ) ) ;
#58 = EDGE_CURVE ( 'NONE', #136, #145, #157, .T. ) ;
#59 = SURFACE_STYLE_USAGE ( .BOTH. , #141 ) ;
#60 = CIRCLE ( 'NONE', #110, 25.88062189054721100 ) ;
#61 = CIRCLE ( 'NONE', #147, 9.999999999999980500 ) ;
#62 = DIRECTION ( 'NONE',  ( -1.000000000000000000, -0.0000000000000000000, -0.0000000000000000000 ) ) ;
#63 = ORIENTED_EDGE ( 'NONE', *, *, #114, .T. ) ;
#64 = CARTESIAN_POINT ( 'NONE',  ( 557.5831211010877300, 188.8612059825992400, 9.999999999999980500 ) ) ;
#65 = EDGE_CURVE ( 'NONE', #145, #75, #18, .T. ) ;
#66 = FILL_AREA_STYLE_COLOUR ( '', #69 ) ;
#67 = MANIFOLD_SOLID_BREP ( 'Ðý×ª1', #57 ) ;
#68 = DIRECTION ( 'NONE',  ( 1.000000000000000000, 0.0000000000000000000, 0.0000000000000000000 ) ) ;
#69 = COLOUR_RGB ( '',1.000000000000000000, 1.000000000000000000, 1.000000000000000000 ) ;
#70 = EDGE_CURVE ( 'NONE', #15, #136, #119, .T. ) ;
#71 = ORIENTED_EDGE ( 'NONE', *, *, #65, .F. ) ;
#72 = DIRECTION ( 'NONE',  ( -1.000000000000000000, -0.0000000000000000000, -0.0000000000000000000 ) ) ;
#73 = CARTESIAN_POINT ( 'NONE',  ( 550.7365353256348000, 188.8612059825992400, 0.0000000000000000000 ) ) ;
#74 = APPLICATION_CONTEXT ( 'automotive_design' ) ;
#75 = VERTEX_POINT ( 'NONE', #108 ) ;
#76 = EDGE_LOOP ( 'NONE', ( #113, #43, #124, #144 ) ) ;
#77 = PRODUCT_DEFINITION_SHAPE ( 'NONE', 'NONE',  #162 ) ;
#78 = DIRECTION ( 'NONE',  ( 0.0000000000000000000, 0.0000000000000000000, 1.000000000000000000 ) ) ;
#79 = EDGE_LOOP ( 'NONE', ( #63, #49 ) ) ;
#80 = ORIENTED_EDGE ( 'NONE', *, *, #65, .T. ) ;
#81 = EDGE_CURVE ( 'NONE', #30, #136, #61, .T. ) ;
#82 = ORIENTED_EDGE ( 'NONE', *, *, #114, .F. ) ;
#83 = CARTESIAN_POINT ( 'NONE',  ( 557.5831211010877300, 188.8612059825992400, 0.0000000000000000000 ) ) ;
#84 = AXIS2_PLACEMENT_3D ( 'NONE', #50, #184, #92 ) ;
#85 = CARTESIAN_POINT ( 'NONE',  ( 555.3931211010877900, 188.8612059825992400, 0.0000000000000000000 ) ) ;
#86 = PRESENTATION_LAYER_ASSIGNMENT (  '', '', ( #121 ) ) ;
#87 = ADVANCED_FACE ( 'NONE', ( #89 ), #155, .T. ) ;
#88 = FILL_AREA_STYLE ('',( #36 ) ) ;
#89 = FACE_OUTER_BOUND ( 'NONE', #127, .T. ) ;
#90 = STYLED_ITEM ( 'NONE', ( #48 ), #35 ) ;
#91 = FACE_OUTER_BOUND ( 'NONE', #76, .T. ) ;
#92 = DIRECTION ( 'NONE',  ( 0.0000000000000000000, 1.000000000000000000, 0.0000000000000000000 ) ) ;
#93 = DIRECTION ( 'NONE',  ( -1.000000000000000000, -0.0000000000000000000, -0.0000000000000000000 ) ) ;
#94 = VECTOR ( 'NONE', #185, 1000.000000000000000 ) ;
#95 = EDGE_CURVE ( 'NONE', #145, #150, #134, .T. ) ;
#96 = EDGE_LOOP ( 'NONE', ( #3, #105, #82, #142, #171 ) ) ;
#97 = CARTESIAN_POINT ( 'NONE',  ( 533.7124992105405000, 188.8612059825991900, 0.0000000000000000000 ) ) ;
#98 = DIRECTION ( 'NONE',  ( -1.000000000000000000, -0.0000000000000000000, -0.0000000000000000000 ) ) ;
#99 = AXIS2_PLACEMENT_3D ( 'NONE', #17, #146, #143 ) ;
#100 = AXIS2_PLACEMENT_3D ( 'NONE', #22, #98, #139 ) ;
#101 = PRODUCT_DEFINITION_CONTEXT ( 'detailed design', #74, 'design' ) ;
#102 = ORIENTED_EDGE ( 'NONE', *, *, #70, .F. ) ;
#103 = CIRCLE ( 'NONE', #130, 9.999999999999980500 ) ;
#104 = CYLINDRICAL_SURFACE ( 'NONE', #53, 9.999999999999980500 ) ;
#105 = ORIENTED_EDGE ( 'NONE', *, *, #95, .T. ) ;
#106 = PLANE ( 'NONE',  #10 ) ;
#107 = DIRECTION ( 'NONE',  ( 0.0000000000000000000, 1.000000000000000000, 0.0000000000000000000 ) ) ;
#108 = CARTESIAN_POINT ( 'NONE',  ( 557.5831211010877300, 178.8612059825992400, -1.224646799147346200E-015 ) ) ;
#109 = SURFACE_SIDE_STYLE ('',( #2 ) ) ;
#110 = AXIS2_PLACEMENT_3D ( 'NONE', #9, #117, #118 ) ;
#111 = DIRECTION ( 'NONE',  ( 0.0000000000000000000, 0.0000000000000000000, 1.000000000000000000 ) ) ;
#112 = FILL_AREA_STYLE ('',( #66 ) ) ;
#113 = ORIENTED_EDGE ( 'NONE', *, *, #183, .F. ) ;
#114 = EDGE_CURVE ( 'NONE', #176, #150, #47, .T. ) ;
#115 =( LENGTH_UNIT ( ) NAMED_UNIT ( * ) SI_UNIT ( .MILLI., .METRE. ) );
#116 = PRESENTATION_LAYER_ASSIGNMENT (  '', '', ( #90 ) ) ;
#117 = DIRECTION ( 'NONE',  ( 0.0000000000000000000, 1.224646799147353200E-016, -1.000000000000000000 ) ) ;
#118 = DIRECTION ( 'NONE',  ( 0.0000000000000000000, 1.000000000000000000, 1.224646799147353200E-016 ) ) ;
#119 = CIRCLE ( 'NONE', #137, 25.88062189054718200 ) ;
#120 = EDGE_CURVE ( 'NONE', #150, #176, #103, .T. ) ;
#121 = STYLED_ITEM ( 'NONE', ( #38 ), #67 ) ;
#122 = PRODUCT ( '100035', '100035', '', ( #19 ) ) ;
#123 = EDGE_LOOP ( 'NONE', ( #102, #180, #71, #21 ) ) ;
#124 = ORIENTED_EDGE ( 'NONE', *, *, #81, .F. ) ;
#125 = CARTESIAN_POINT ( 'NONE',  ( 555.3931211010877900, 188.8612059825992400, 0.0000000000000000000 ) ) ;
#126 = EDGE_CURVE ( 'NONE', #30, #176, #148, .T. ) ;
#127 = EDGE_LOOP ( 'NONE', ( #34, #80, #46, #25, #24 ) ) ;
#128 = DIRECTION ( 'NONE',  ( -1.000000000000000000, -0.0000000000000000000, -0.0000000000000000000 ) ) ;
#129 = AXIS2_PLACEMENT_3D ( 'NONE', #5, #93, #186 ) ;
#130 = AXIS2_PLACEMENT_3D ( 'NONE', #7, #37, #42 ) ;
#131 =( NAMED_UNIT ( * ) PLANE_ANGLE_UNIT ( ) SI_UNIT ( $, .RADIAN. ) );
#132 = VECTOR ( 'NONE', #173, 1000.000000000000000 ) ;
#133 = SPHERICAL_SURFACE ( 'NONE', #84, 25.88062189054721100 ) ;
#134 = LINE ( 'NONE', #40, #94 ) ;
#135 = DIRECTION ( 'NONE',  ( -1.000000000000000000, -0.0000000000000000000, -0.0000000000000000000 ) ) ;
#136 = VERTEX_POINT ( 'NONE', #140 ) ;
#137 = AXIS2_PLACEMENT_3D ( 'NONE', #97, #4, #138 ) ;
#138 = DIRECTION ( 'NONE',  ( 1.000000000000000000, 0.0000000000000000000, 0.0000000000000000000 ) ) ;
#139 = DIRECTION ( 'NONE',  ( 0.0000000000000000000, 0.0000000000000000000, 1.000000000000000000 ) ) ;
#140 = CARTESIAN_POINT ( 'NONE',  ( 557.5831211010877300, 198.8612059825992200, 0.0000000000000000000 ) ) ;
#141 = SURFACE_SIDE_STYLE ('',( #181 ) ) ;
#142 = ORIENTED_EDGE ( 'NONE', *, *, #126, .F. ) ;
#143 = DIRECTION ( 'NONE',  ( 1.000000000000000000, 0.0000000000000000000, 0.0000000000000000000 ) ) ;
#144 = ORIENTED_EDGE ( 'NONE', *, *, #23, .F. ) ;
#145 = VERTEX_POINT ( 'NONE', #12 ) ;
#146 = DIRECTION ( 'NONE',  ( 0.0000000000000000000, 0.0000000000000000000, 1.000000000000000000 ) ) ;
#147 = AXIS2_PLACEMENT_3D ( 'NONE', #83, #174, #111 ) ;
#148 = LINE ( 'NONE', #168, #132 ) ;
#149 =( GEOMETRIC_REPRESENTATION_CONTEXT ( 3 ) GLOBAL_UNCERTAINTY_ASSIGNED_CONTEXT ( ( #160 ) ) GLOBAL_UNIT_ASSIGNED_CONTEXT ( ( #115, #44, #28 ) ) REPRESENTATION_CONTEXT ( 'NONE', 'WORKASPACE' ) );
#150 = VERTEX_POINT ( 'NONE', #56 ) ;
#151 = CARTESIAN_POINT ( 'NONE',  ( 557.5831211010877300, 188.8612059825992400, 0.0000000000000000000 ) ) ;
#152 = CARTESIAN_POINT ( 'NONE',  ( 559.5931211010877200, 188.8612059825991900, 0.0000000000000000000 ) ) ;
#153 = AXIS2_PLACEMENT_3D ( 'NONE', #85, #72, #16 ) ;
#154 = DIRECTION ( 'NONE',  ( -0.0000000000000000000, 0.0000000000000000000, -1.000000000000000000 ) ) ;
#155 = CYLINDRICAL_SURFACE ( 'NONE', #178, 9.999999999999980500 ) ;
#156 =( NAMED_UNIT ( * ) PLANE_ANGLE_UNIT ( ) SI_UNIT ( $, .RADIAN. ) );
#157 = CIRCLE ( 'NONE', #100, 9.999999999999980500 ) ;
#158 = SURFACE_STYLE_USAGE ( .BOTH. , #109 ) ;
#159 = ADVANCED_FACE ( 'NONE', ( #91 ), #13, .T. ) ;
#160 = UNCERTAINTY_MEASURE_WITH_UNIT (LENGTH_MEASURE( 1.000000000000000100E-005 ), #115, 'distance_accuracy_value', 'NONE');
#161 = CARTESIAN_POINT ( 'NONE',  ( 533.7124992105405000, 188.8612059825991900, 0.0000000000000000000 ) ) ;
#162 = PRODUCT_DEFINITION ( 'Î´Öª', '', #170, #101 ) ;
#163 =( NAMED_UNIT ( * ) SI_UNIT ( $, .STERADIAN. ) SOLID_ANGLE_UNIT ( ) );
#164 = MECHANICAL_DESIGN_GEOMETRIC_PRESENTATION_REPRESENTATION (  '', ( #121 ), #172 ) ;
#165 = FACE_OUTER_BOUND ( 'NONE', #123, .T. ) ;
#166 = FACE_OUTER_BOUND ( 'NONE', #96, .T. ) ;
#167 = UNCERTAINTY_MEASURE_WITH_UNIT (LENGTH_MEASURE( 1.000000000000000100E-005 ), #51, 'distance_accuracy_value', 'NONE');
#168 = CARTESIAN_POINT ( 'NONE',  ( 550.7365353256348000, 188.8612059825992400, 9.999999999999980500 ) ) ;
#169 = DIRECTION ( 'NONE',  ( 0.0000000000000000000, 0.0000000000000000000, 1.000000000000000000 ) ) ;
#170 = PRODUCT_DEFINITION_FORMATION_WITH_SPECIFIED_SOURCE ( 'ÈÎºÎ', '', #122, .NOT_KNOWN. ) ;
#171 = ORIENTED_EDGE ( 'NONE', *, *, #81, .T. ) ;
#172 =( GEOMETRIC_REPRESENTATION_CONTEXT ( 3 ) GLOBAL_UNCERTAINTY_ASSIGNED_CONTEXT ( ( #167 ) ) GLOBAL_UNIT_ASSIGNED_CONTEXT ( ( #51, #156, #26 ) ) REPRESENTATION_CONTEXT ( 'NONE', 'WORKASPACE' ) );
#173 = DIRECTION ( 'NONE',  ( -1.000000000000000000, -0.0000000000000000000, -0.0000000000000000000 ) ) ;
#174 = DIRECTION ( 'NONE',  ( -1.000000000000000000, -0.0000000000000000000, -0.0000000000000000000 ) ) ;
#175 = UNCERTAINTY_MEASURE_WITH_UNIT (LENGTH_MEASURE( 1.000000000000000100E-005 ), #177, 'distance_accuracy_value', 'NONE');
#176 = VERTEX_POINT ( 'NONE', #55 ) ;
#177 =( LENGTH_UNIT ( ) NAMED_UNIT ( * ) SI_UNIT ( .MILLI., .METRE. ) );
#178 = AXIS2_PLACEMENT_3D ( 'NONE', #73, #128, #169 ) ;
#179 = APPLICATION_PROTOCOL_DEFINITION ( 'draft international standard', 'automotive_design', 1998, #74 ) ;
#180 = ORIENTED_EDGE ( 'NONE', *, *, #183, .T. ) ;
#181 = SURFACE_STYLE_FILL_AREA ( #88 ) ;
#182 = PRODUCT_RELATED_PRODUCT_CATEGORY ( 'part', '', ( #122 ) ) ;
#183 = EDGE_CURVE ( 'NONE', #15, #75, #60, .T. ) ;
#184 = DIRECTION ( 'NONE',  ( -0.0000000000000000000, 0.0000000000000000000, -1.000000000000000000 ) ) ;
#185 = DIRECTION ( 'NONE',  ( -1.000000000000000000, -0.0000000000000000000, -0.0000000000000000000 ) ) ;
#186 = DIRECTION ( 'NONE',  ( 0.0000000000000000000, 0.0000000000000000000, 1.000000000000000000 ) ) ;
ENDSEC;
END-ISO-10303-21;
