ISO-10303-21;
HEADER;
FILE_DESCRIPTION (( 'STEP AP214' ),
    '1' );
FILE_NAME ('100049.STEP',
    '2019-04-29T09:35:51',
    ( '' ),
    ( '' ),
    'SwSTEP 2.0',
    'SolidWorks 2016',
    '' );
FILE_SCHEMA (( 'AUTOMOTIVE_DESIGN' ));
ENDSEC;

DATA;
#1 = EDGE_CURVE ( 'NONE', #48, #49, #163, .T. ) ;
#2 = PRODUCT_DEFINITION_SHAPE ( 'NONE', 'NONE',  #170 ) ;
#3 = PRESENTATION_LAYER_ASSIGNMENT (  '', '', ( #31 ) ) ;
#4 = CARTESIAN_POINT ( 'NONE',  ( 399.2639289963971700, 170.8631688327581300, 0.0000000000000000000 ) ) ;
#5 = PRODUCT_DEFINITION_FORMATION_WITH_SPECIFIED_SOURCE ( 'ÈÎºÎ', '', #73, .NOT_KNOWN. ) ;
#6 = ORIENTED_EDGE ( 'NONE', *, *, #162, .F. ) ;
#7 = DIRECTION ( 'NONE',  ( 0.0000000000000000000, 1.000000000000000000, 0.0000000000000000000 ) ) ;
#8 = VERTEX_POINT ( 'NONE', #131 ) ;
#9 = DIRECTION ( 'NONE',  ( 1.000000000000000000, 0.0000000000000000000, 0.0000000000000000000 ) ) ;
#10 = CARTESIAN_POINT ( 'NONE',  ( 394.5218977545072800, 170.8631688327581300, -12.49999999999998400 ) ) ;
#11 = APPLICATION_CONTEXT ( 'automotive_design' ) ;
#12 = ORIENTED_EDGE ( 'NONE', *, *, #58, .T. ) ;
#13 = CARTESIAN_POINT ( 'NONE',  ( 244.7639289963959800, 170.8631688327580200, 0.0000000000000000000 ) ) ;
#14 = AXIS2_PLACEMENT_3D ( 'NONE', #13, #140, #158 ) ;
#15 = CIRCLE ( 'NONE', #86, 156.5000000000011900 ) ;
#16 = EDGE_LOOP ( 'NONE', ( #143, #156 ) ) ;
#17 = AXIS2_PLACEMENT_3D ( 'NONE', #26, #183, #89 ) ;
#18 = FACE_OUTER_BOUND ( 'NONE', #60, .T. ) ;
#19 = ADVANCED_FACE ( 'NONE', ( #29 ), #20, .F. ) ;
#20 = PLANE ( 'NONE',  #154 ) ;
#21 = MANIFOLD_SOLID_BREP ( 'Ðý×ª1', #113 ) ;
#22 = ORIENTED_EDGE ( 'NONE', *, *, #114, .T. ) ;
#23 = DIRECTION ( 'NONE',  ( -1.000000000000000000, -0.0000000000000000000, -0.0000000000000000000 ) ) ;
#24 = AXIS2_PLACEMENT_3D ( 'NONE', #123, #159, #186 ) ;
#25 = VECTOR ( 'NONE', #112, 1000.000000000000000 ) ;
#26 = CARTESIAN_POINT ( 'NONE',  ( 400.7639289963971700, 170.8631688327581300, 0.0000000000000000000 ) ) ;
#27 = CARTESIAN_POINT ( 'NONE',  ( 401.2639289963971700, 170.8631688327580200, 0.0000000000000000000 ) ) ;
#28 =( NAMED_UNIT ( * ) PLANE_ANGLE_UNIT ( ) SI_UNIT ( $, .RADIAN. ) );
#29 = FACE_OUTER_BOUND ( 'NONE', #16, .T. ) ;
#30 = DIRECTION ( 'NONE',  ( 0.0000000000000000000, 1.000000000000000000, 1.224646799147353500E-016 ) ) ;
#31 = STYLED_ITEM ( 'NONE', ( #144 ), #139 ) ;
#32 = APPLICATION_CONTEXT ( 'automotive_design' ) ;
#33 = CARTESIAN_POINT ( 'NONE',  ( 400.7639289963971700, 170.8631688327581300, 0.0000000000000000000 ) ) ;
#34 = CIRCLE ( 'NONE', #17, 12.49999999999998400 ) ;
#35 = STYLED_ITEM ( 'NONE', ( #39 ), #21 ) ;
#36 =( GEOMETRIC_REPRESENTATION_CONTEXT ( 3 ) GLOBAL_UNCERTAINTY_ASSIGNED_CONTEXT ( ( #176 ) ) GLOBAL_UNIT_ASSIGNED_CONTEXT ( ( #57, #91, #108 ) ) REPRESENTATION_CONTEXT ( 'NONE', 'WORKASPACE' ) );
#37 = CARTESIAN_POINT ( 'NONE',  ( 399.2639289963971700, 170.8631688327581300, 0.0000000000000000000 ) ) ;
#38 = DIRECTION ( 'NONE',  ( -0.0000000000000000000, 0.0000000000000000000, -1.000000000000000000 ) ) ;
#39 = PRESENTATION_STYLE_ASSIGNMENT (( #67 ) ) ;
#40 = EDGE_LOOP ( 'NONE', ( #130, #152, #22, #87, #109 ) ) ;
#41 = PRESENTATION_LAYER_ASSIGNMENT (  '', '', ( #35 ) ) ;
#42 = PRODUCT_DEFINITION_CONTEXT ( 'detailed design', #32, 'design' ) ;
#43 = UNCERTAINTY_MEASURE_WITH_UNIT (LENGTH_MEASURE( 1.000000000000000100E-005 ), #105, 'distance_accuracy_value', 'NONE');
#44 = FACE_OUTER_BOUND ( 'NONE', #148, .T. ) ;
#45 = SURFACE_STYLE_USAGE ( .BOTH. , #172 ) ;
#46 = DIRECTION ( 'NONE',  ( 0.0000000000000000000, 1.224646799147353200E-016, -1.000000000000000000 ) ) ;
#47 = AXIS2_PLACEMENT_3D ( 'NONE', #166, #103, #64 ) ;
#48 = VERTEX_POINT ( 'NONE', #136 ) ;
#49 = VERTEX_POINT ( 'NONE', #98 ) ;
#50 = EDGE_LOOP ( 'NONE', ( #149, #71, #179, #6, #63 ) ) ;
#51 = CIRCLE ( 'NONE', #24, 12.49999999999998400 ) ;
#52 = CARTESIAN_POINT ( 'NONE',  ( 400.7639289963971700, 170.8631688327581300, 12.49999999999998400 ) ) ;
#53 = MECHANICAL_DESIGN_GEOMETRIC_PRESENTATION_REPRESENTATION (  '', ( #31 ), #62 ) ;
#54 = ADVANCED_FACE ( 'NONE', ( #44 ), #110, .T. ) ;
#55 = CYLINDRICAL_SURFACE ( 'NONE', #47, 12.49999999999998400 ) ;
#56 = VERTEX_POINT ( 'NONE', #151 ) ;
#57 =( LENGTH_UNIT ( ) NAMED_UNIT ( * ) SI_UNIT ( .MILLI., .METRE. ) );
#58 = EDGE_CURVE ( 'NONE', #80, #8, #15, .T. ) ;
#59 = DIRECTION ( 'NONE',  ( -1.000000000000000000, -0.0000000000000000000, -0.0000000000000000000 ) ) ;
#60 = EDGE_LOOP ( 'NONE', ( #137, #12, #118, #85 ) ) ;
#61 = LINE ( 'NONE', #70, #25 ) ;
#62 =( GEOMETRIC_REPRESENTATION_CONTEXT ( 3 ) GLOBAL_UNCERTAINTY_ASSIGNED_CONTEXT ( ( #43 ) ) GLOBAL_UNIT_ASSIGNED_CONTEXT ( ( #105, #28, #81 ) ) REPRESENTATION_CONTEXT ( 'NONE', 'WORKASPACE' ) );
#63 = ORIENTED_EDGE ( 'NONE', *, *, #124, .T. ) ;
#64 = DIRECTION ( 'NONE',  ( 0.0000000000000000000, 0.0000000000000000000, 1.000000000000000000 ) ) ;
#65 = CARTESIAN_POINT ( 'NONE',  ( 244.7639289963959800, 170.8631688327580200, 0.0000000000000000000 ) ) ;
#66 = DIRECTION ( 'NONE',  ( 1.000000000000000000, 0.0000000000000000000, 0.0000000000000000000 ) ) ;
#67 = SURFACE_STYLE_USAGE ( .BOTH. , #122 ) ;
#68 = DIRECTION ( 'NONE',  ( 0.0000000000000000000, 0.0000000000000000000, 1.000000000000000000 ) ) ;
#69 = DIRECTION ( 'NONE',  ( 0.0000000000000000000, 0.0000000000000000000, 1.000000000000000000 ) ) ;
#70 = CARTESIAN_POINT ( 'NONE',  ( 394.5218977545072800, 170.8631688327581300, 12.49999999999998400 ) ) ;
#71 = ORIENTED_EDGE ( 'NONE', *, *, #160, .T. ) ;
#72 = SURFACE_STYLE_FILL_AREA ( #101 ) ;
#73 = PRODUCT ( '100049', '100049', '', ( #155 ) ) ;
#74 = EDGE_CURVE ( 'NONE', #8, #185, #34, .T. ) ;
#75 = FILL_AREA_STYLE_COLOUR ( '', #125 ) ;
#76 = SHAPE_DEFINITION_REPRESENTATION ( #2, #139 ) ;
#77 = CARTESIAN_POINT ( 'NONE',  ( 244.7639289963959800, 170.8631688327580200, 0.0000000000000000000 ) ) ;
#78 = FILL_AREA_STYLE_COLOUR ( '', #129 ) ;
#79 = CARTESIAN_POINT ( 'NONE',  ( 0.0000000000000000000, 0.0000000000000000000, 0.0000000000000000000 ) ) ;
#80 = VERTEX_POINT ( 'NONE', #27 ) ;
#81 =( NAMED_UNIT ( * ) SI_UNIT ( $, .STERADIAN. ) SOLID_ANGLE_UNIT ( ) );
#82 = EDGE_CURVE ( 'NONE', #49, #48, #96, .T. ) ;
#83 = CARTESIAN_POINT ( 'NONE',  ( 400.7639289963971700, 170.8631688327581300, -12.49999999999998400 ) ) ;
#84 = EDGE_CURVE ( 'NONE', #80, #56, #135, .T. ) ;
#85 = ORIENTED_EDGE ( 'NONE', *, *, #114, .F. ) ;
#86 = AXIS2_PLACEMENT_3D ( 'NONE', #65, #121, #9 ) ;
#87 = ORIENTED_EDGE ( 'NONE', *, *, #162, .T. ) ;
#88 = VECTOR ( 'NONE', #142, 1000.000000000000000 ) ;
#89 = DIRECTION ( 'NONE',  ( 0.0000000000000000000, 0.0000000000000000000, 1.000000000000000000 ) ) ;
#90 = FILL_AREA_STYLE ('',( #78 ) ) ;
#91 =( NAMED_UNIT ( * ) PLANE_ANGLE_UNIT ( ) SI_UNIT ( $, .RADIAN. ) );
#92 = DIRECTION ( 'NONE',  ( 1.000000000000000000, 0.0000000000000000000, 0.0000000000000000000 ) ) ;
#93 = CARTESIAN_POINT ( 'NONE',  ( 400.7639289963971700, 170.8631688327581300, 0.0000000000000000000 ) ) ;
#94 = AXIS2_PLACEMENT_3D ( 'NONE', #171, #175, #68 ) ;
#95 = VERTEX_POINT ( 'NONE', #52 ) ;
#96 = CIRCLE ( 'NONE', #117, 12.49999999999998400 ) ;
#97 = ADVANCED_FACE ( 'NONE', ( #116 ), #55, .T. ) ;
#98 = CARTESIAN_POINT ( 'NONE',  ( 399.2639289963971700, 170.8631688327581300, -12.49999999999998400 ) ) ;
#99 = ORIENTED_EDGE ( 'NONE', *, *, #100, .F. ) ;
#100 = EDGE_CURVE ( 'NONE', #185, #56, #126, .T. ) ;
#101 = FILL_AREA_STYLE ('',( #75 ) ) ;
#102 =( LENGTH_UNIT ( ) NAMED_UNIT ( * ) SI_UNIT ( .MILLI., .METRE. ) );
#103 = DIRECTION ( 'NONE',  ( -1.000000000000000000, -0.0000000000000000000, -0.0000000000000000000 ) ) ;
#104 = ORIENTED_EDGE ( 'NONE', *, *, #58, .F. ) ;
#105 =( LENGTH_UNIT ( ) NAMED_UNIT ( * ) SI_UNIT ( .MILLI., .METRE. ) );
#106 = DIRECTION ( 'NONE',  ( 0.0000000000000000000, 0.0000000000000000000, 1.000000000000000000 ) ) ;
#107 = APPLICATION_PROTOCOL_DEFINITION ( 'draft international standard', 'automotive_design', 1998, #11 ) ;
#108 =( NAMED_UNIT ( * ) SI_UNIT ( $, .STERADIAN. ) SOLID_ANGLE_UNIT ( ) );
#109 = ORIENTED_EDGE ( 'NONE', *, *, #82, .F. ) ;
#110 = SPHERICAL_SURFACE ( 'NONE', #174, 156.5000000000011900 ) ;
#111 =( GEOMETRIC_REPRESENTATION_CONTEXT ( 3 ) GLOBAL_UNCERTAINTY_ASSIGNED_CONTEXT ( ( #119 ) ) GLOBAL_UNIT_ASSIGNED_CONTEXT ( ( #102, #169, #181 ) ) REPRESENTATION_CONTEXT ( 'NONE', 'WORKASPACE' ) );
#112 = DIRECTION ( 'NONE',  ( -1.000000000000000000, -0.0000000000000000000, -0.0000000000000000000 ) ) ;
#113 = CLOSED_SHELL ( 'NONE', ( #97, #54, #133, #180, #19 ) ) ;
#114 = EDGE_CURVE ( 'NONE', #56, #95, #157, .T. ) ;
#115 = ORIENTED_EDGE ( 'NONE', *, *, #84, .T. ) ;
#116 = FACE_OUTER_BOUND ( 'NONE', #50, .T. ) ;
#117 = AXIS2_PLACEMENT_3D ( 'NONE', #153, #23, #134 ) ;
#118 = ORIENTED_EDGE ( 'NONE', *, *, #124, .F. ) ;
#119 = UNCERTAINTY_MEASURE_WITH_UNIT (LENGTH_MEASURE( 1.000000000000000100E-005 ), #102, 'distance_accuracy_value', 'NONE');
#120 = DIRECTION ( 'NONE',  ( 0.0000000000000000000, 0.0000000000000000000, 1.000000000000000000 ) ) ;
#121 = DIRECTION ( 'NONE',  ( -0.0000000000000000000, 0.0000000000000000000, 1.000000000000000000 ) ) ;
#122 = SURFACE_SIDE_STYLE ('',( #72 ) ) ;
#123 = CARTESIAN_POINT ( 'NONE',  ( 400.7639289963971700, 170.8631688327581300, 0.0000000000000000000 ) ) ;
#124 = EDGE_CURVE ( 'NONE', #95, #8, #51, .T. ) ;
#125 = COLOUR_RGB ( '',1.000000000000000000, 1.000000000000000000, 1.000000000000000000 ) ;
#126 = CIRCLE ( 'NONE', #177, 12.49999999999998400 ) ;
#127 = SURFACE_STYLE_FILL_AREA ( #90 ) ;
#128 = LINE ( 'NONE', #10, #88 ) ;
#129 = COLOUR_RGB ( '',1.000000000000000000, 1.000000000000000000, 1.000000000000000000 ) ;
#130 = ORIENTED_EDGE ( 'NONE', *, *, #160, .F. ) ;
#131 = CARTESIAN_POINT ( 'NONE',  ( 400.7639289963971700, 183.3631688327581300, 0.0000000000000000000 ) ) ;
#132 = AXIS2_PLACEMENT_3D ( 'NONE', #37, #146, #120 ) ;
#133 = ADVANCED_FACE ( 'NONE', ( #18 ), #164, .T. ) ;
#134 = DIRECTION ( 'NONE',  ( 0.0000000000000000000, 0.0000000000000000000, 1.000000000000000000 ) ) ;
#135 = CIRCLE ( 'NONE', #150, 156.5000000000011700 ) ;
#136 = CARTESIAN_POINT ( 'NONE',  ( 399.2639289963971700, 170.8631688327581300, 12.49999999999998400 ) ) ;
#137 = ORIENTED_EDGE ( 'NONE', *, *, #84, .F. ) ;
#138 = DIRECTION ( 'NONE',  ( 0.0000000000000000000, 0.0000000000000000000, 1.000000000000000000 ) ) ;
#139 = ADVANCED_BREP_SHAPE_REPRESENTATION ( '100049', ( #21, #147 ), #36 ) ;
#140 = DIRECTION ( 'NONE',  ( -0.0000000000000000000, 0.0000000000000000000, -1.000000000000000000 ) ) ;
#141 = DIRECTION ( 'NONE',  ( -1.000000000000000000, -0.0000000000000000000, -0.0000000000000000000 ) ) ;
#142 = DIRECTION ( 'NONE',  ( -1.000000000000000000, -0.0000000000000000000, -0.0000000000000000000 ) ) ;
#143 = ORIENTED_EDGE ( 'NONE', *, *, #1, .T. ) ;
#144 = PRESENTATION_STYLE_ASSIGNMENT (( #45 ) ) ;
#145 = MECHANICAL_DESIGN_GEOMETRIC_PRESENTATION_REPRESENTATION (  '', ( #35 ), #111 ) ;
#146 = DIRECTION ( 'NONE',  ( -1.000000000000000000, -0.0000000000000000000, -0.0000000000000000000 ) ) ;
#147 = AXIS2_PLACEMENT_3D ( 'NONE', #79, #69, #92 ) ;
#148 = EDGE_LOOP ( 'NONE', ( #104, #115, #99, #161 ) ) ;
#149 = ORIENTED_EDGE ( 'NONE', *, *, #74, .T. ) ;
#150 = AXIS2_PLACEMENT_3D ( 'NONE', #168, #46, #30 ) ;
#151 = CARTESIAN_POINT ( 'NONE',  ( 400.7639289963971700, 158.3631688327579900, -1.530808498934191100E-015 ) ) ;
#152 = ORIENTED_EDGE ( 'NONE', *, *, #100, .T. ) ;
#153 = CARTESIAN_POINT ( 'NONE',  ( 399.2639289963971700, 170.8631688327581300, 0.0000000000000000000 ) ) ;
#154 = AXIS2_PLACEMENT_3D ( 'NONE', #4, #66, #184 ) ;
#155 = PRODUCT_CONTEXT ( 'NONE', #11, 'mechanical' ) ;
#156 = ORIENTED_EDGE ( 'NONE', *, *, #82, .T. ) ;
#157 = CIRCLE ( 'NONE', #182, 12.49999999999998400 ) ;
#158 = DIRECTION ( 'NONE',  ( 0.0000000000000000000, 1.000000000000000000, 0.0000000000000000000 ) ) ;
#159 = DIRECTION ( 'NONE',  ( -1.000000000000000000, -0.0000000000000000000, -0.0000000000000000000 ) ) ;
#160 = EDGE_CURVE ( 'NONE', #185, #49, #128, .T. ) ;
#161 = ORIENTED_EDGE ( 'NONE', *, *, #74, .F. ) ;
#162 = EDGE_CURVE ( 'NONE', #95, #48, #61, .T. ) ;
#163 = CIRCLE ( 'NONE', #132, 12.49999999999998400 ) ;
#164 = SPHERICAL_SURFACE ( 'NONE', #14, 156.5000000000011900 ) ;
#165 = CYLINDRICAL_SURFACE ( 'NONE', #94, 12.49999999999998400 ) ;
#166 = CARTESIAN_POINT ( 'NONE',  ( 394.5218977545072800, 170.8631688327581300, 0.0000000000000000000 ) ) ;
#167 = FACE_OUTER_BOUND ( 'NONE', #40, .T. ) ;
#168 = CARTESIAN_POINT ( 'NONE',  ( 244.7639289963959800, 170.8631688327580200, 0.0000000000000000000 ) ) ;
#169 =( NAMED_UNIT ( * ) PLANE_ANGLE_UNIT ( ) SI_UNIT ( $, .RADIAN. ) );
#170 = PRODUCT_DEFINITION ( 'Î´Öª', '', #5, #42 ) ;
#171 = CARTESIAN_POINT ( 'NONE',  ( 394.5218977545072800, 170.8631688327581300, 0.0000000000000000000 ) ) ;
#172 = SURFACE_SIDE_STYLE ('',( #127 ) ) ;
#173 = APPLICATION_PROTOCOL_DEFINITION ( 'draft international standard', 'automotive_design', 1998, #32 ) ;
#174 = AXIS2_PLACEMENT_3D ( 'NONE', #77, #38, #7 ) ;
#175 = DIRECTION ( 'NONE',  ( -1.000000000000000000, -0.0000000000000000000, -0.0000000000000000000 ) ) ;
#176 = UNCERTAINTY_MEASURE_WITH_UNIT (LENGTH_MEASURE( 1.000000000000000100E-005 ), #57, 'distance_accuracy_value', 'NONE');
#177 = AXIS2_PLACEMENT_3D ( 'NONE', #33, #141, #106 ) ;
#178 = PRODUCT_RELATED_PRODUCT_CATEGORY ( 'part', '', ( #73 ) ) ;
#179 = ORIENTED_EDGE ( 'NONE', *, *, #1, .F. ) ;
#180 = ADVANCED_FACE ( 'NONE', ( #167 ), #165, .T. ) ;
#181 =( NAMED_UNIT ( * ) SI_UNIT ( $, .STERADIAN. ) SOLID_ANGLE_UNIT ( ) );
#182 = AXIS2_PLACEMENT_3D ( 'NONE', #93, #59, #138 ) ;
#183 = DIRECTION ( 'NONE',  ( -1.000000000000000000, -0.0000000000000000000, -0.0000000000000000000 ) ) ;
#184 = DIRECTION ( 'NONE',  ( 0.0000000000000000000, 0.0000000000000000000, -1.000000000000000000 ) ) ;
#185 = VERTEX_POINT ( 'NONE', #83 ) ;
#186 = DIRECTION ( 'NONE',  ( 0.0000000000000000000, 0.0000000000000000000, 1.000000000000000000 ) ) ;
ENDSEC;
END-ISO-10303-21;
