ISO-10303-21;
HEADER;
FILE_DESCRIPTION (( 'STEP AP203' ),
    '1' );
FILE_NAME ('100106.STEP',
    '2023-11-28T06:12:15',
    ( 'Windows User' ),
    ( 'P R C' ),
    'SwSTEP 2.0',
    'SolidWorks 2020',
    '' );
FILE_SCHEMA (( 'CONFIG_CONTROL_DESIGN' ));
ENDSEC;

DATA;
#1 = EDGE_LOOP ( 'NONE', ( #138 ) ) ;
#2 = DIRECTION ( 'NONE',  ( -1.000000000000000000, -0.000000000000000000, -0.000000000000000000 ) ) ;
#3 = LOCAL_TIME ( 14, 12, 15.00000000000000000, #70 ) ;
#4 = CC_DESIGN_DATE_AND_TIME_ASSIGNMENT ( #90, #117, ( #24 ) ) ;
#5 = APPROVAL_ROLE ( '' ) ;
#6 = CARTESIAN_POINT ( 'NONE',  ( 512.0413832527503928, 129.3295623006154358, 0.000000000000000000 ) ) ;
#7 = CARTESIAN_POINT ( 'NONE',  ( 511.0998327809760440, 129.3295623006154358, 0.000000000000000000 ) ) ;
#8 = APPROVAL_DATE_TIME ( #31, #80 ) ;
#9 = PRODUCT_DEFINITION_FORMATION_WITH_SPECIFIED_SOURCE ( 'ÈÎºÎ', '', #26, .NOT_KNOWN. ) ;
#10 = CARTESIAN_POINT ( 'NONE',  ( 513.0440916899543708, 134.4063140421106368, 4.960130719185995574 ) ) ;
#11 = COORDINATED_UNIVERSAL_TIME_OFFSET ( 8, 0, .AHEAD. ) ;
#12 = PRODUCT_DEFINITION ( 'Î´Öª', '', #9, #72 ) ;
#13 = CARTESIAN_POINT ( 'NONE',  ( 513.7069065922564732, 127.6000885298117282, 5.092922551112072149 ) ) ;
#14 = APPLICATION_CONTEXT ( 'configuration controlled 3d designs of mechanical parts and assemblies' ) ;
#15 = CARTESIAN_POINT ( 'NONE',  ( 513.7024813507194949, 131.0369159650064717, -5.122387064174615645 ) ) ;
#16 = CC_DESIGN_APPROVAL ( #112, ( #24 ) ) ;
#17 = CALENDAR_DATE ( 2023, 28, 11 ) ;
#18 = AXIS2_PLACEMENT_3D ( 'NONE', #59, #2, #58 ) ;
#19 = DIRECTION ( 'NONE',  ( -1.000000000000000000, -0.000000000000000000, -0.000000000000000000 ) ) ;
#20 = CARTESIAN_POINT ( 'NONE',  ( 512.0413832527503928, 129.3295623006154358, 0.000000000000000000 ) ) ;
#21 = PERSON_AND_ORGANIZATION ( #132, #124 ) ;
#22 = APPROVAL_STATUS ( 'not_yet_approved' ) ;
#23 = APPROVAL_DATE_TIME ( #55, #112 ) ;
#24 = SECURITY_CLASSIFICATION ( '', '', #76 ) ;
#25 = CARTESIAN_POINT ( 'NONE',  ( 514.3826664163198075, 127.6000885298116998, -1.740018352607564323 ) ) ;
#26 = PRODUCT ( '100106', '100106', '', ( #48 ) ) ;
#27 = ADVANCED_BREP_SHAPE_REPRESENTATION ( '100106', ( #129, #96 ), #137 ) ;
#28 = CARTESIAN_POINT ( 'NONE',  ( 0.000000000000000000, 0.000000000000000000, 0.000000000000000000 ) ) ;
#29 = DIRECTION ( 'NONE',  ( 0.000000000000000000, 0.000000000000000000, 1.000000000000000000 ) ) ;
#30 = LOCAL_TIME ( 14, 12, 15.00000000000000000, #53 ) ;
#31 = DATE_AND_TIME ( #114, #3 ) ;
#32 = APPROVAL ( #52, 'Î´Ö¸¶¨' ) ;
#33 = DIRECTION ( 'NONE',  ( 0.000000000000000000, 0.000000000000000000, 1.000000000000000000 ) ) ;
#34 = CIRCLE ( 'NONE', #47, 5.000000000000004441 ) ;
#35 = PERSON_AND_ORGANIZATION_ROLE ( 'classification_officer' ) ;
#36 = CC_DESIGN_PERSON_AND_ORGANIZATION_ASSIGNMENT ( #57, #35, ( #24 ) ) ;
#37 = EDGE_LOOP ( 'NONE', ( #67 ) ) ;
#38 = CARTESIAN_POINT ( 'NONE',  ( 514.3861223179270610, 131.0369159650064717, 1.710160054730905710 ) ) ;
#39 = DATE_AND_TIME ( #17, #30 ) ;
#40 = CARTESIAN_POINT ( 'NONE',  ( 513.5513832527503837, 129.3295623006154358, 5.000000000000004441 ) ) ;
#41 = EDGE_CURVE ( 'NONE', #143, #143, #82, .T. ) ;
#42 = CC_DESIGN_APPROVAL ( #32, ( #9 ) ) ;
#43 = APPROVAL_ROLE ( '' ) ;
#44 = CARTESIAN_POINT ( 'NONE',  ( 513.0341270600282542, 124.2312696686621507, -4.987687321122700190 ) ) ;
#45 = ORIENTED_EDGE ( 'NONE', *, *, #41, .T. ) ;
#46 = CARTESIAN_POINT ( 'NONE',  ( 513.7083441444813161, 131.0369159650064717, 5.093210557903710800 ) ) ;
#47 = AXIS2_PLACEMENT_3D ( 'NONE', #20, #54, #33 ) ;
#48 = MECHANICAL_CONTEXT ( 'NONE', #14, 'mechanical' ) ;
#49 = APPROVAL_PERSON_ORGANIZATION ( #61, #32, #101 ) ;
#50 = APPLICATION_PROTOCOL_DEFINITION ( 'international standard', 'config_control_design', 1994, #51 ) ;
#51 = APPLICATION_CONTEXT ( 'configuration controlled 3d designs of mechanical parts and assemblies' ) ;
#52 = APPROVAL_STATUS ( 'not_yet_approved' ) ;
#53 = COORDINATED_UNIVERSAL_TIME_OFFSET ( 8, 0, .AHEAD. ) ;
#54 = DIRECTION ( 'NONE',  ( 1.000000000000000000, 0.000000000000000000, 0.000000000000000000 ) ) ;
#55 = DATE_AND_TIME ( #145, #60 ) ;
#56 =( BOUNDED_SURFACE ( )  B_SPLINE_SURFACE ( 3, 3, ( 
 ( #44, #91, #111, #123 ),
 ( #121, #25, #92, #13 ),
 ( #15, #136, #38, #46 ),
 ( #125, #95, #106, #10 ) ),
 .UNSPECIFIED., .F., .F., .F. ) 
 B_SPLINE_SURFACE_WITH_KNOTS ( ( 4, 4 ),
 ( 4, 4 ),
 ( 0.000000000000000000, 1.000000000000000000 ),
 ( 0.000000000000000000, 1.000000000000000000 ),
 .UNSPECIFIED. ) 
 GEOMETRIC_REPRESENTATION_ITEM ( )  RATIONAL_B_SPLINE_SURFACE ( (
 ( 1.000000000000000000, 0.9869350776064805819, 0.9869350776064805819, 1.000000000000000000),
 ( 0.9868640546463709473, 0.9739707523594621774, 0.9739707523594621774, 0.9868640546463709473),
 ( 0.9868640546463709473, 0.9739707523594621774, 0.9739707523594621774, 0.9868640546463709473),
 ( 1.000000000000000000, 0.9869350776064805819, 0.9869350776064805819, 1.000000000000000000) ) ) 
 REPRESENTATION_ITEM ( '' )  SURFACE ( )  );
#57 = PERSON_AND_ORGANIZATION ( #132, #124 ) ;
#58 = DIRECTION ( 'NONE',  ( 0.000000000000000000, 0.000000000000000000, 1.000000000000000000 ) ) ;
#59 = CARTESIAN_POINT ( 'NONE',  ( 513.5513832527503837, 129.3295623006154358, 0.000000000000000000 ) ) ;
#60 = LOCAL_TIME ( 14, 12, 15.00000000000000000, #11 ) ;
#61 = PERSON_AND_ORGANIZATION ( #132, #124 ) ;
#62 = UNCERTAINTY_MEASURE_WITH_UNIT (LENGTH_MEASURE( 1.000000000000000082E-05 ), #73, 'distance_accuracy_value', 'NONE');
#63 =( NAMED_UNIT ( * ) SI_UNIT ( $, .STERADIAN. ) SOLID_ANGLE_UNIT ( ) );
#64 = CALENDAR_DATE ( 2023, 28, 11 ) ;
#65 = APPROVAL_PERSON_ORGANIZATION ( #21, #80, #5 ) ;
#66 = EDGE_LOOP ( 'NONE', ( #45 ) ) ;
#67 = ORIENTED_EDGE ( 'NONE', *, *, #135, .F. ) ;
#68 = PRODUCT_DEFINITION_SHAPE ( 'NONE', 'NONE',  #12 ) ;
#69 = FACE_OUTER_BOUND ( 'NONE', #37, .T. ) ;
#70 = COORDINATED_UNIVERSAL_TIME_OFFSET ( 8, 0, .AHEAD. ) ;
#71 = DIRECTION ( 'NONE',  ( 0.000000000000000000, 0.000000000000000000, -1.000000000000000000 ) ) ;
#72 = DESIGN_CONTEXT ( 'detailed design', #51, 'design' ) ;
#73 =( LENGTH_UNIT ( ) NAMED_UNIT ( * ) SI_UNIT ( .MILLI., .METRE. ) );
#74 = CC_DESIGN_PERSON_AND_ORGANIZATION_ASSIGNMENT ( #126, #87, ( #26 ) ) ;
#75 = CALENDAR_DATE ( 2023, 28, 11 ) ;
#76 = SECURITY_CLASSIFICATION_LEVEL ( 'unclassified' ) ;
#77 = ADVANCED_FACE ( 'NONE', ( #78 ), #56, .T. ) ;
#78 = FACE_OUTER_BOUND ( 'NONE', #1, .T. ) ;
#79 = CLOSED_SHELL ( 'NONE', ( #133, #89, #77 ) ) ;
#80 = APPROVAL ( #104, 'Î´Ö¸¶¨' ) ;
#81 = CARTESIAN_POINT ( 'NONE',  ( 512.0413832527503928, 129.3295623006154358, 5.000000000000004441 ) ) ;
#82 = CIRCLE ( 'NONE', #18, 5.000000000000004441 ) ;
#83 =( NAMED_UNIT ( * ) PLANE_ANGLE_UNIT ( ) SI_UNIT ( $, .RADIAN. ) );
#84 = CC_DESIGN_DATE_AND_TIME_ASSIGNMENT ( #39, #127, ( #12 ) ) ;
#85 = APPLICATION_PROTOCOL_DEFINITION ( 'international standard', 'config_control_design', 1994, #14 ) ;
#86 = LOCAL_TIME ( 14, 12, 15.00000000000000000, #88 ) ;
#87 = PERSON_AND_ORGANIZATION_ROLE ( 'design_owner' ) ;
#88 = COORDINATED_UNIVERSAL_TIME_OFFSET ( 8, 0, .AHEAD. ) ;
#89 = ADVANCED_FACE ( 'NONE', ( #128, #97 ), #141, .T. ) ;
#90 = DATE_AND_TIME ( #75, #108 ) ;
#91 = CARTESIAN_POINT ( 'NONE',  ( 513.6978627457604034, 124.2312696686621649, -1.694358147710613549 ) ) ;
#92 = CARTESIAN_POINT ( 'NONE',  ( 514.3846464392448752, 127.6000885298116998, 1.710063349969703994 ) ) ;
#93 = PERSON_AND_ORGANIZATION ( #132, #124 ) ;
#94 = DIRECTION ( 'NONE',  ( 0.000000000000000000, 0.000000000000000000, 1.000000000000000000 ) ) ;
#95 = CARTESIAN_POINT ( 'NONE',  ( 513.7022318891208670, 134.4063140421106368, -1.694649466214915412 ) ) ;
#96 = AXIS2_PLACEMENT_3D ( 'NONE', #28, #29, #115 ) ;
#97 = FACE_OUTER_BOUND ( 'NONE', #66, .T. ) ;
#98 = PERSON_AND_ORGANIZATION ( #132, #124 ) ;
#99 = CC_DESIGN_PERSON_AND_ORGANIZATION_ASSIGNMENT ( #109, #146, ( #9 ) ) ;
#100 = DATE_AND_TIME ( #64, #86 ) ;
#101 = APPROVAL_ROLE ( '' ) ;
#102 = COORDINATED_UNIVERSAL_TIME_OFFSET ( 8, 0, .AHEAD. ) ;
#103 = EDGE_LOOP ( 'NONE', ( #113 ) ) ;
#104 = APPROVAL_STATUS ( 'not_yet_approved' ) ;
#105 = CC_DESIGN_APPROVAL ( #80, ( #12 ) ) ;
#106 = CARTESIAN_POINT ( 'NONE',  ( 513.7041602853289533, 134.4063140421106368, 1.665475504253814742 ) ) ;
#107 = PRODUCT_RELATED_PRODUCT_CATEGORY ( 'detail', '', ( #26 ) ) ;
#108 = LOCAL_TIME ( 14, 12, 15.00000000000000000, #102 ) ;
#109 = PERSON_AND_ORGANIZATION ( #132, #124 ) ;
#110 = CC_DESIGN_SECURITY_CLASSIFICATION ( #24, ( #9 ) ) ;
#111 = CARTESIAN_POINT ( 'NONE',  ( 513.6997908104676753, 124.2312696686621649, 1.665189200895737631 ) ) ;
#112 = APPROVAL ( #22, 'Î´Ö¸¶¨' ) ;
#113 = ORIENTED_EDGE ( 'NONE', *, *, #135, .T. ) ;
#114 = CALENDAR_DATE ( 2023, 28, 11 ) ;
#115 = DIRECTION ( 'NONE',  ( 1.000000000000000000, 0.000000000000000000, 0.000000000000000000 ) ) ;
#116 = PERSON_AND_ORGANIZATION_ROLE ( 'creator' ) ;
#117 = DATE_TIME_ROLE ( 'classification_date' ) ;
#118 = SHAPE_DEFINITION_REPRESENTATION ( #68, #27 ) ;
#119 = APPROVAL_PERSON_ORGANIZATION ( #98, #112, #43 ) ;
#120 = PERSON_AND_ORGANIZATION_ROLE ( 'design_supplier' ) ;
#121 = CARTESIAN_POINT ( 'NONE',  ( 513.7010441300192269, 127.6000885298117282, -5.122097407533344970 ) ) ;
#122 = CC_DESIGN_PERSON_AND_ORGANIZATION_ASSIGNMENT ( #93, #116, ( #12 ) ) ;
#123 = CARTESIAN_POINT ( 'NONE',  ( 513.0398356841025134, 124.2312696686621507, 4.959278048535686878 ) ) ;
#124 = ORGANIZATION ( 'Î´Ö¸¶¨', 'Î´Ö¸¶¨', '' ) ;
#125 = CARTESIAN_POINT ( 'NONE',  ( 513.0383820843711646, 134.4063140421106368, -4.988544876305082809 ) ) ;
#126 = PERSON_AND_ORGANIZATION ( #132, #124 ) ;
#127 = DATE_TIME_ROLE ( 'creation_date' ) ;
#128 = FACE_OUTER_BOUND ( 'NONE', #103, .T. ) ;
#129 = MANIFOLD_SOLID_BREP ( 'NONE', #79 ) ;
#130 = PLANE ( 'NONE',  #131 ) ;
#131 = AXIS2_PLACEMENT_3D ( 'NONE', #6, #140, #71 ) ;
#132 = PERSON ( 'Î´Ö¸¶¨', 'Î´Ö¸¶¨', 'Î´Ö¸¶¨', ('Î´Ö¸¶¨'), ('Î´Ö¸¶¨'), ('Î´Ö¸¶¨') ) ;
#133 = ADVANCED_FACE ( 'NONE', ( #69 ), #130, .F. ) ;
#134 = PERSON_AND_ORGANIZATION ( #132, #124 ) ;
#135 = EDGE_CURVE ( 'NONE', #144, #144, #34, .T. ) ;
#136 = CARTESIAN_POINT ( 'NONE',  ( 514.3841421830311447, 131.0369159650064717, -1.740116751335965439 ) ) ;
#137 =( GEOMETRIC_REPRESENTATION_CONTEXT ( 3 ) GLOBAL_UNCERTAINTY_ASSIGNED_CONTEXT ( ( #62 ) ) GLOBAL_UNIT_ASSIGNED_CONTEXT ( ( #73, #83, #63 ) ) REPRESENTATION_CONTEXT ( 'NONE', 'WORKASPACE' ) );
#138 = ORIENTED_EDGE ( 'NONE', *, *, #41, .F. ) ;
#139 = AXIS2_PLACEMENT_3D ( 'NONE', #7, #19, #94 ) ;
#140 = DIRECTION ( 'NONE',  ( 1.000000000000000000, -0.000000000000000000, 0.000000000000000000 ) ) ;
#141 = CYLINDRICAL_SURFACE ( 'NONE', #139, 5.000000000000004441 ) ;
#142 = CC_DESIGN_PERSON_AND_ORGANIZATION_ASSIGNMENT ( #134, #120, ( #9 ) ) ;
#143 = VERTEX_POINT ( 'NONE', #40 ) ;
#144 = VERTEX_POINT ( 'NONE', #81 ) ;
#145 = CALENDAR_DATE ( 2023, 28, 11 ) ;
#146 = PERSON_AND_ORGANIZATION_ROLE ( 'creator' ) ;
#147 = APPROVAL_DATE_TIME ( #100, #32 ) ;
ENDSEC;
END-ISO-10303-21;
