ISO-10303-21;
HEADER;
FILE_DESCRIPTION (( 'STEP AP214' ),
    '1' );
FILE_NAME ('100115.STEP',
    '2019-05-14T02:36:46',
    ( '' ),
    ( '' ),
    'SwSTEP 2.0',
    'SolidWorks 2016',
    '' );
FILE_SCHEMA (( 'AUTOMOTIVE_DESIGN' ));
ENDSEC;

DATA;
#1 = DIRECTION ( 'NONE',  ( -1.000000000000000000, -0.0000000000000000000, -0.0000000000000000000 ) ) ;
#2 = DIRECTION ( 'NONE',  ( 0.0000000000000000000, 0.0000000000000000000, 1.000000000000000000 ) ) ;
#3 = ORIENTED_EDGE ( 'NONE', *, *, #168, .T. ) ;
#4 = AXIS2_PLACEMENT_3D ( 'NONE', #70, #119, #41 ) ;
#5 = PRODUCT_DEFINITION_CONTEXT ( 'detailed design', #40, 'design' ) ;
#6 = ADVANCED_FACE ( 'NONE', ( #25 ), #182, .F. ) ;
#7 = ORIENTED_EDGE ( 'NONE', *, *, #24, .T. ) ;
#8 = APPLICATION_PROTOCOL_DEFINITION ( 'draft international standard', 'automotive_design', 1998, #40 ) ;
#9 = VERTEX_POINT ( 'NONE', #142 ) ;
#10 = CARTESIAN_POINT ( 'NONE',  ( 0.0000000000000000000, 0.0000000000000000000, 0.0000000000000000000 ) ) ;
#11 = ORIENTED_EDGE ( 'NONE', *, *, #143, .T. ) ;
#12 = SURFACE_STYLE_USAGE ( .BOTH. , #71 ) ;
#13 = ORIENTED_EDGE ( 'NONE', *, *, #88, .F. ) ;
#14 = CARTESIAN_POINT ( 'NONE',  ( 492.7289193959177300, 85.92189148388558800, 0.0000000000000000000 ) ) ;
#15 = VERTEX_POINT ( 'NONE', #180 ) ;
#16 = DIRECTION ( 'NONE',  ( -1.000000000000000000, -0.0000000000000000000, -0.0000000000000000000 ) ) ;
#17 = PRESENTATION_LAYER_ASSIGNMENT (  '', '', ( #156 ) ) ;
#18 = DIRECTION ( 'NONE',  ( 0.0000000000000000000, -1.000000000000000000, 0.0000000000000000000 ) ) ;
#19 = CYLINDRICAL_SURFACE ( 'NONE', #58, 8.000000000000007100 ) ;
#20 = DIRECTION ( 'NONE',  ( 0.0000000000000000000, 0.0000000000000000000, 1.000000000000000000 ) ) ;
#21 = SHAPE_DEFINITION_REPRESENTATION ( #27, #116 ) ;
#22 = DIRECTION ( 'NONE',  ( 0.0000000000000000000, -1.000000000000000000, 0.0000000000000000000 ) ) ;
#23 = CIRCLE ( 'NONE', #158, 8.000000000000007100 ) ;
#24 = EDGE_CURVE ( 'NONE', #47, #81, #102, .T. ) ;
#25 = FACE_OUTER_BOUND ( 'NONE', #36, .T. ) ;
#26 = PRODUCT ( '100115', '100115', '', ( #179 ) ) ;
#27 = PRODUCT_DEFINITION_SHAPE ( 'NONE', 'NONE',  #99 ) ;
#28 = DIRECTION ( 'NONE',  ( 1.000000000000000000, 0.0000000000000000000, 0.0000000000000000000 ) ) ;
#29 = VECTOR ( 'NONE', #16, 1000.000000000000000 ) ;
#30 = FACE_OUTER_BOUND ( 'NONE', #118, .T. ) ;
#31 = DIRECTION ( 'NONE',  ( 0.0000000000000000000, 0.0000000000000000000, 1.000000000000000000 ) ) ;
#32 = CIRCLE ( 'NONE', #172, 8.000000000000007100 ) ;
#33 = ORIENTED_EDGE ( 'NONE', *, *, #24, .F. ) ;
#34 = DIRECTION ( 'NONE',  ( -1.000000000000000000, -0.0000000000000000000, -0.0000000000000000000 ) ) ;
#35 = DIRECTION ( 'NONE',  ( 0.0000000000000000000, 0.0000000000000000000, -1.000000000000000000 ) ) ;
#36 = EDGE_LOOP ( 'NONE', ( #7, #11 ) ) ;
#37 =( GEOMETRIC_REPRESENTATION_CONTEXT ( 3 ) GLOBAL_UNCERTAINTY_ASSIGNED_CONTEXT ( ( #69 ) ) GLOBAL_UNIT_ASSIGNED_CONTEXT ( ( #128, #44, #60 ) ) REPRESENTATION_CONTEXT ( 'NONE', 'WORKASPACE' ) );
#38 = CARTESIAN_POINT ( 'NONE',  ( 492.7289193959177300, 85.92189148388558800, 8.000000000000007100 ) ) ;
#39 = ORIENTED_EDGE ( 'NONE', *, *, #97, .F. ) ;
#40 = APPLICATION_CONTEXT ( 'automotive_design' ) ;
#41 = DIRECTION ( 'NONE',  ( 0.0000000000000000000, 0.0000000000000000000, 1.000000000000000000 ) ) ;
#42 = ORIENTED_EDGE ( 'NONE', *, *, #131, .T. ) ;
#43 =( LENGTH_UNIT ( ) NAMED_UNIT ( * ) SI_UNIT ( .MILLI., .METRE. ) );
#44 =( NAMED_UNIT ( * ) PLANE_ANGLE_UNIT ( ) SI_UNIT ( $, .RADIAN. ) );
#45 = AXIS2_PLACEMENT_3D ( 'NONE', #55, #175, #22 ) ;
#46 = DIRECTION ( 'NONE',  ( 0.0000000000000000000, 0.0000000000000000000, 1.000000000000000000 ) ) ;
#47 = VERTEX_POINT ( 'NONE', #38 ) ;
#48 = MECHANICAL_DESIGN_GEOMETRIC_PRESENTATION_REPRESENTATION (  '', ( #156 ), #37 ) ;
#49 = CARTESIAN_POINT ( 'NONE',  ( 469.6970690022168900, 85.92189148388564500, 0.0000000000000000000 ) ) ;
#50 = UNCERTAINTY_MEASURE_WITH_UNIT (LENGTH_MEASURE( 1.000000000000000100E-005 ), #43, 'distance_accuracy_value', 'NONE');
#51 = CARTESIAN_POINT ( 'NONE',  ( 494.2589193959177000, 85.92189148388558800, 0.0000000000000000000 ) ) ;
#52 = ORIENTED_EDGE ( 'NONE', *, *, #94, .F. ) ;
#53 = PRODUCT_RELATED_PRODUCT_CATEGORY ( 'part', '', ( #26 ) ) ;
#54 = DIRECTION ( 'NONE',  ( -1.000000000000000000, -0.0000000000000000000, -0.0000000000000000000 ) ) ;
#55 = CARTESIAN_POINT ( 'NONE',  ( 469.6970690022168900, 85.92189148388564500, 0.0000000000000000000 ) ) ;
#56 = FACE_OUTER_BOUND ( 'NONE', #153, .T. ) ;
#57 = AXIS2_PLACEMENT_3D ( 'NONE', #51, #34, #163 ) ;
#58 = AXIS2_PLACEMENT_3D ( 'NONE', #79, #132, #66 ) ;
#59 = VERTEX_POINT ( 'NONE', #96 ) ;
#60 =( NAMED_UNIT ( * ) SI_UNIT ( $, .STERADIAN. ) SOLID_ANGLE_UNIT ( ) );
#61 = AXIS2_PLACEMENT_3D ( 'NONE', #10, #77, #111 ) ;
#62 = CIRCLE ( 'NONE', #75, 25.83185039370077600 ) ;
#63 =( NAMED_UNIT ( * ) SI_UNIT ( $, .STERADIAN. ) SOLID_ANGLE_UNIT ( ) );
#64 = ORIENTED_EDGE ( 'NONE', *, *, #97, .T. ) ;
#65 = DIRECTION ( 'NONE',  ( 0.0000000000000000000, 0.0000000000000000000, 1.000000000000000000 ) ) ;
#66 = DIRECTION ( 'NONE',  ( 0.0000000000000000000, 0.0000000000000000000, 1.000000000000000000 ) ) ;
#67 = SPHERICAL_SURFACE ( 'NONE', #45, 25.83185039370077600 ) ;
#68 = CARTESIAN_POINT ( 'NONE',  ( 469.6970690022168900, 85.92189148388564500, 0.0000000000000000000 ) ) ;
#69 = UNCERTAINTY_MEASURE_WITH_UNIT (LENGTH_MEASURE( 1.000000000000000100E-005 ), #128, 'distance_accuracy_value', 'NONE');
#70 = CARTESIAN_POINT ( 'NONE',  ( 490.8061026910720000, 85.92189148388558800, 0.0000000000000000000 ) ) ;
#71 = SURFACE_SIDE_STYLE ('',( #141 ) ) ;
#72 = LINE ( 'NONE', #90, #29 ) ;
#73 = LINE ( 'NONE', #160, #174 ) ;
#74 = ADVANCED_FACE ( 'NONE', ( #30 ), #67, .T. ) ;
#75 = AXIS2_PLACEMENT_3D ( 'NONE', #49, #92, #108 ) ;
#76 = PRESENTATION_LAYER_ASSIGNMENT (  '', '', ( #186 ) ) ;
#77 = DIRECTION ( 'NONE',  ( 0.0000000000000000000, 0.0000000000000000000, 1.000000000000000000 ) ) ;
#78 = FILL_AREA_STYLE_COLOUR ( '', #140 ) ;
#79 = CARTESIAN_POINT ( 'NONE',  ( 490.8061026910720000, 85.92189148388558800, 0.0000000000000000000 ) ) ;
#80 = EDGE_CURVE ( 'NONE', #125, #59, #23, .T. ) ;
#81 = VERTEX_POINT ( 'NONE', #82 ) ;
#82 = CARTESIAN_POINT ( 'NONE',  ( 492.7289193959177300, 85.92189148388558800, -8.000000000000007100 ) ) ;
#83 = ORIENTED_EDGE ( 'NONE', *, *, #94, .T. ) ;
#84 = EDGE_CURVE ( 'NONE', #15, #125, #134, .T. ) ;
#85 = FILL_AREA_STYLE ('',( #95 ) ) ;
#86 = APPLICATION_PROTOCOL_DEFINITION ( 'draft international standard', 'automotive_design', 1998, #126 ) ;
#87 = ORIENTED_EDGE ( 'NONE', *, *, #80, .F. ) ;
#88 = EDGE_CURVE ( 'NONE', #9, #125, #62, .T. ) ;
#89 = SURFACE_SIDE_STYLE ('',( #177 ) ) ;
#90 = CARTESIAN_POINT ( 'NONE',  ( 490.8061026910720000, 85.92189148388558800, 8.000000000000007100 ) ) ;
#91 = ORIENTED_EDGE ( 'NONE', *, *, #84, .F. ) ;
#92 = DIRECTION ( 'NONE',  ( 0.0000000000000000000, -1.224646799147353200E-016, 1.000000000000000000 ) ) ;
#93 = CYLINDRICAL_SURFACE ( 'NONE', #4, 8.000000000000007100 ) ;
#94 = EDGE_CURVE ( 'NONE', #59, #81, #73, .T. ) ;
#95 = FILL_AREA_STYLE_COLOUR ( '', #129 ) ;
#96 = CARTESIAN_POINT ( 'NONE',  ( 494.2589193959177000, 85.92189148388558800, -8.000000000000007100 ) ) ;
#97 = EDGE_CURVE ( 'NONE', #9, #167, #139, .T. ) ;
#98 = FACE_OUTER_BOUND ( 'NONE', #169, .T. ) ;
#99 = PRODUCT_DEFINITION ( 'Î´Öª', '', #109, #5 ) ;
#100 = ORIENTED_EDGE ( 'NONE', *, *, #143, .F. ) ;
#101 = CARTESIAN_POINT ( 'NONE',  ( 494.2589193959177000, 85.92189148388558800, 0.0000000000000000000 ) ) ;
#102 = CIRCLE ( 'NONE', #107, 8.000000000000007100 ) ;
#103 = FILL_AREA_STYLE ('',( #78 ) ) ;
#104 =( NAMED_UNIT ( * ) PLANE_ANGLE_UNIT ( ) SI_UNIT ( $, .RADIAN. ) );
#105 = FACE_OUTER_BOUND ( 'NONE', #157, .T. ) ;
#106 = CIRCLE ( 'NONE', #137, 8.000000000000007100 ) ;
#107 = AXIS2_PLACEMENT_3D ( 'NONE', #122, #54, #2 ) ;
#108 = DIRECTION ( 'NONE',  ( 0.0000000000000000000, -1.000000000000000000, -1.224646799147353200E-016 ) ) ;
#109 = PRODUCT_DEFINITION_FORMATION_WITH_SPECIFIED_SOURCE ( 'ÈÎºÎ', '', #26, .NOT_KNOWN. ) ;
#110 = ADVANCED_FACE ( 'NONE', ( #56 ), #93, .T. ) ;
#111 = DIRECTION ( 'NONE',  ( 1.000000000000000000, 0.0000000000000000000, 0.0000000000000000000 ) ) ;
#112 = CARTESIAN_POINT ( 'NONE',  ( 492.7289193959177300, 85.92189148388558800, 0.0000000000000000000 ) ) ;
#113 = ORIENTED_EDGE ( 'NONE', *, *, #131, .F. ) ;
#114 = AXIS2_PLACEMENT_3D ( 'NONE', #121, #35, #152 ) ;
#115 = SURFACE_STYLE_USAGE ( .BOTH. , #89 ) ;
#116 = ADVANCED_BREP_SHAPE_REPRESENTATION ( '100115', ( #178, #61 ), #165 ) ;
#117 = CARTESIAN_POINT ( 'NONE',  ( 494.2589193959177000, 85.92189148388558800, 0.0000000000000000000 ) ) ;
#118 = EDGE_LOOP ( 'NONE', ( #13, #64, #113, #87 ) ) ;
#119 = DIRECTION ( 'NONE',  ( -1.000000000000000000, -0.0000000000000000000, -0.0000000000000000000 ) ) ;
#120 = ORIENTED_EDGE ( 'NONE', *, *, #80, .T. ) ;
#121 = CARTESIAN_POINT ( 'NONE',  ( 469.6970690022168900, 85.92189148388564500, 0.0000000000000000000 ) ) ;
#122 = CARTESIAN_POINT ( 'NONE',  ( 492.7289193959177300, 85.92189148388558800, 0.0000000000000000000 ) ) ;
#123 = ADVANCED_FACE ( 'NONE', ( #98 ), #171, .T. ) ;
#124 = AXIS2_PLACEMENT_3D ( 'NONE', #68, #133, #18 ) ;
#125 = VERTEX_POINT ( 'NONE', #155 ) ;
#126 = APPLICATION_CONTEXT ( 'automotive_design' ) ;
#127 = DIRECTION ( 'NONE',  ( 0.0000000000000000000, 0.0000000000000000000, -1.000000000000000000 ) ) ;
#128 =( LENGTH_UNIT ( ) NAMED_UNIT ( * ) SI_UNIT ( .MILLI., .METRE. ) );
#129 = COLOUR_RGB ( '',1.000000000000000000, 1.000000000000000000, 1.000000000000000000 ) ;
#130 = ORIENTED_EDGE ( 'NONE', *, *, #88, .T. ) ;
#131 = EDGE_CURVE ( 'NONE', #59, #167, #166, .T. ) ;
#132 = DIRECTION ( 'NONE',  ( -1.000000000000000000, -0.0000000000000000000, -0.0000000000000000000 ) ) ;
#133 = DIRECTION ( 'NONE',  ( 0.0000000000000000000, 0.0000000000000000000, 1.000000000000000000 ) ) ;
#134 = CIRCLE ( 'NONE', #57, 8.000000000000007100 ) ;
#135 = AXIS2_PLACEMENT_3D ( 'NONE', #112, #28, #127 ) ;
#136 = ORIENTED_EDGE ( 'NONE', *, *, #168, .F. ) ;
#137 = AXIS2_PLACEMENT_3D ( 'NONE', #14, #146, #65 ) ;
#138 = CARTESIAN_POINT ( 'NONE',  ( 494.2589193959177000, 85.92189148388558800, 0.0000000000000000000 ) ) ;
#139 = CIRCLE ( 'NONE', #114, 25.83185039370078300 ) ;
#140 = COLOUR_RGB ( '',1.000000000000000000, 1.000000000000000000, 1.000000000000000000 ) ;
#141 = SURFACE_STYLE_FILL_AREA ( #85 ) ;
#142 = CARTESIAN_POINT ( 'NONE',  ( 495.5289193959176800, 85.92189148388564500, 0.0000000000000000000 ) ) ;
#143 = EDGE_CURVE ( 'NONE', #81, #47, #106, .T. ) ;
#144 = PRESENTATION_STYLE_ASSIGNMENT (( #115 ) ) ;
#145 =( NAMED_UNIT ( * ) PLANE_ANGLE_UNIT ( ) SI_UNIT ( $, .RADIAN. ) );
#146 = DIRECTION ( 'NONE',  ( -1.000000000000000000, -0.0000000000000000000, -0.0000000000000000000 ) ) ;
#147 = ORIENTED_EDGE ( 'NONE', *, *, #161, .F. ) ;
#148 = DIRECTION ( 'NONE',  ( -1.000000000000000000, -0.0000000000000000000, -0.0000000000000000000 ) ) ;
#149 = UNCERTAINTY_MEASURE_WITH_UNIT (LENGTH_MEASURE( 1.000000000000000100E-005 ), #170, 'distance_accuracy_value', 'NONE');
#150 = DIRECTION ( 'NONE',  ( -1.000000000000000000, -0.0000000000000000000, -0.0000000000000000000 ) ) ;
#151 =( NAMED_UNIT ( * ) SI_UNIT ( $, .STERADIAN. ) SOLID_ANGLE_UNIT ( ) );
#152 = DIRECTION ( 'NONE',  ( -1.000000000000000000, 0.0000000000000000000, 0.0000000000000000000 ) ) ;
#153 = EDGE_LOOP ( 'NONE', ( #120, #83, #33, #136, #164 ) ) ;
#154 = AXIS2_PLACEMENT_3D ( 'NONE', #101, #1, #31 ) ;
#155 = CARTESIAN_POINT ( 'NONE',  ( 494.2589193959177000, 93.92189148388558800, 9.797174393178770400E-016 ) ) ;
#156 = STYLED_ITEM ( 'NONE', ( #184 ), #178 ) ;
#157 = EDGE_LOOP ( 'NONE', ( #52, #42, #185, #3, #100 ) ) ;
#158 = AXIS2_PLACEMENT_3D ( 'NONE', #138, #150, #20 ) ;
#159 = CARTESIAN_POINT ( 'NONE',  ( 494.2589193959177000, 77.92189148388563100, 0.0000000000000000000 ) ) ;
#160 = CARTESIAN_POINT ( 'NONE',  ( 490.8061026910720000, 85.92189148388558800, -8.000000000000007100 ) ) ;
#161 = EDGE_CURVE ( 'NONE', #167, #15, #32, .T. ) ;
#162 = CLOSED_SHELL ( 'NONE', ( #110, #123, #74, #176, #6 ) ) ;
#163 = DIRECTION ( 'NONE',  ( 0.0000000000000000000, 0.0000000000000000000, 1.000000000000000000 ) ) ;
#164 = ORIENTED_EDGE ( 'NONE', *, *, #84, .T. ) ;
#165 =( GEOMETRIC_REPRESENTATION_CONTEXT ( 3 ) GLOBAL_UNCERTAINTY_ASSIGNED_CONTEXT ( ( #149 ) ) GLOBAL_UNIT_ASSIGNED_CONTEXT ( ( #170, #145, #63 ) ) REPRESENTATION_CONTEXT ( 'NONE', 'WORKASPACE' ) );
#166 = CIRCLE ( 'NONE', #154, 8.000000000000007100 ) ;
#167 = VERTEX_POINT ( 'NONE', #159 ) ;
#168 = EDGE_CURVE ( 'NONE', #15, #47, #72, .T. ) ;
#169 = EDGE_LOOP ( 'NONE', ( #39, #130, #91, #147 ) ) ;
#170 =( LENGTH_UNIT ( ) NAMED_UNIT ( * ) SI_UNIT ( .MILLI., .METRE. ) );
#171 = SPHERICAL_SURFACE ( 'NONE', #124, 25.83185039370077600 ) ;
#172 = AXIS2_PLACEMENT_3D ( 'NONE', #117, #183, #46 ) ;
#173 = MECHANICAL_DESIGN_GEOMETRIC_PRESENTATION_REPRESENTATION (  '', ( #186 ), #181 ) ;
#174 = VECTOR ( 'NONE', #148, 1000.000000000000000 ) ;
#175 = DIRECTION ( 'NONE',  ( 0.0000000000000000000, 0.0000000000000000000, 1.000000000000000000 ) ) ;
#176 = ADVANCED_FACE ( 'NONE', ( #105 ), #19, .T. ) ;
#177 = SURFACE_STYLE_FILL_AREA ( #103 ) ;
#178 = MANIFOLD_SOLID_BREP ( 'Ðý×ª1', #162 ) ;
#179 = PRODUCT_CONTEXT ( 'NONE', #126, 'mechanical' ) ;
#180 = CARTESIAN_POINT ( 'NONE',  ( 494.2589193959177000, 85.92189148388558800, 8.000000000000007100 ) ) ;
#181 =( GEOMETRIC_REPRESENTATION_CONTEXT ( 3 ) GLOBAL_UNCERTAINTY_ASSIGNED_CONTEXT ( ( #50 ) ) GLOBAL_UNIT_ASSIGNED_CONTEXT ( ( #43, #104, #151 ) ) REPRESENTATION_CONTEXT ( 'NONE', 'WORKASPACE' ) );
#182 = PLANE ( 'NONE',  #135 ) ;
#183 = DIRECTION ( 'NONE',  ( -1.000000000000000000, -0.0000000000000000000, -0.0000000000000000000 ) ) ;
#184 = PRESENTATION_STYLE_ASSIGNMENT (( #12 ) ) ;
#185 = ORIENTED_EDGE ( 'NONE', *, *, #161, .T. ) ;
#186 = STYLED_ITEM ( 'NONE', ( #144 ), #116 ) ;
ENDSEC;
END-ISO-10303-21;
