ISO-10303-21;
HEADER;
FILE_DESCRIPTION (( 'STEP AP214' ),
    '1' );
FILE_NAME ('100177.STEP',
    '2019-05-21T01:43:32',
    ( '' ),
    ( '' ),
    'SwSTEP 2.0',
    'SolidWorks 2016',
    '' );
FILE_SCHEMA (( 'AUTOMOTIVE_DESIGN' ));
ENDSEC;

DATA;
#1 = EDGE_LOOP ( 'NONE', ( #134, #100 ) ) ;
#2 =( GEOMETRIC_REPRESENTATION_CONTEXT ( 3 ) GLOBAL_UNCERTAINTY_ASSIGNED_CONTEXT ( ( #139 ) ) GLOBAL_UNIT_ASSIGNED_CONTEXT ( ( #35, #74, #73 ) ) REPRESENTATION_CONTEXT ( 'NONE', 'WORKASPACE' ) );
#3 = AXIS2_PLACEMENT_3D ( 'NONE', #5, #22, #19 ) ;
#4 = AXIS2_PLACEMENT_3D ( 'NONE', #71, #163, #46 ) ;
#5 = CARTESIAN_POINT ( 'NONE',  ( 596.0696878621456600, 72.14543728349572400, 0.0000000000000000000 ) ) ;
#6 = EDGE_CURVE ( 'NONE', #9, #56, #87, .T. ) ;
#7 = CARTESIAN_POINT ( 'NONE',  ( 596.7296878621456200, 72.14544475735937100, 2.499992526136349400 ) ) ;
#8 = DIRECTION ( 'NONE',  ( 0.0000000000000000000, 0.0000000000000000000, -1.000000000000000000 ) ) ;
#9 = VERTEX_POINT ( 'NONE', #127 ) ;
#10 = FILL_AREA_STYLE_COLOUR ( '', #43 ) ;
#11 = CYLINDRICAL_SURFACE ( 'NONE', #91, 2.499992526136349400 ) ;
#12 = EDGE_CURVE ( 'NONE', #42, #9, #159, .T. ) ;
#13 = ORIENTED_EDGE ( 'NONE', *, *, #119, .F. ) ;
#14 = STYLED_ITEM ( 'NONE', ( #120 ), #69 ) ;
#15 = LINE ( 'NONE', #165, #62 ) ;
#16 = DIRECTION ( 'NONE',  ( -1.000000000000000000, -0.0000000000000000000, -0.0000000000000000000 ) ) ;
#17 = ORIENTED_EDGE ( 'NONE', *, *, #72, .T. ) ;
#18 = DIRECTION ( 'NONE',  ( 0.0000000000000000000, 0.0000000000000000000, 1.000000000000000000 ) ) ;
#19 = DIRECTION ( 'NONE',  ( 0.0000000000000000000, 0.0000000000000000000, -1.000000000000000000 ) ) ;
#20 = EDGE_CURVE ( 'NONE', #56, #9, #32, .T. ) ;
#21 = CARTESIAN_POINT ( 'NONE',  ( 596.0696878621456600, 72.14544475735937100, 0.0000000000000000000 ) ) ;
#22 = DIRECTION ( 'NONE',  ( 1.000000000000000000, 0.0000000000000000000, 0.0000000000000000000 ) ) ;
#23 = AXIS2_PLACEMENT_3D ( 'NONE', #142, #66, #131 ) ;
#24 = FACE_OUTER_BOUND ( 'NONE', #54, .T. ) ;
#25 = DIRECTION ( 'NONE',  ( 0.0000000000000000000, 0.0000000000000000000, 1.000000000000000000 ) ) ;
#26 = FILL_AREA_STYLE ('',( #10 ) ) ;
#27 = CARTESIAN_POINT ( 'NONE',  ( 596.7296878621456200, 72.14544475735937100, -2.499992526136349400 ) ) ;
#28 = FACE_OUTER_BOUND ( 'NONE', #1, .T. ) ;
#29 = AXIS2_PLACEMENT_3D ( 'NONE', #96, #98, #25 ) ;
#30 = ORIENTED_EDGE ( 'NONE', *, *, #6, .F. ) ;
#31 = ADVANCED_FACE ( 'NONE', ( #28 ), #61, .F. ) ;
#32 = CIRCLE ( 'NONE', #55, 2.499992526136349400 ) ;
#33 = PRESENTATION_LAYER_ASSIGNMENT (  '', '', ( #103 ) ) ;
#34 = FACE_OUTER_BOUND ( 'NONE', #47, .T. ) ;
#35 =( LENGTH_UNIT ( ) NAMED_UNIT ( * ) SI_UNIT ( .MILLI., .METRE. ) );
#36 = DIRECTION ( 'NONE',  ( 0.0000000000000000000, 0.0000000000000000000, 1.000000000000000000 ) ) ;
#37 = SURFACE_SIDE_STYLE ('',( #93 ) ) ;
#38 = DIRECTION ( 'NONE',  ( 0.0000000000000000000, 0.0000000000000000000, 1.000000000000000000 ) ) ;
#39 = CARTESIAN_POINT ( 'NONE',  ( 593.4294497669408200, 72.14544475735937100, 7.473863611329179000E-006 ) ) ;
#40 = APPLICATION_CONTEXT ( 'automotive_design' ) ;
#41 =( GEOMETRIC_REPRESENTATION_CONTEXT ( 3 ) GLOBAL_UNCERTAINTY_ASSIGNED_CONTEXT ( ( #105 ) ) GLOBAL_UNIT_ASSIGNED_CONTEXT ( ( #65, #67, #86 ) ) REPRESENTATION_CONTEXT ( 'NONE', 'WORKASPACE' ) );
#42 = VERTEX_POINT ( 'NONE', #7 ) ;
#43 = COLOUR_RGB ( '',1.000000000000000000, 1.000000000000000000, 1.000000000000000000 ) ;
#44 = PRESENTATION_LAYER_ASSIGNMENT (  '', '', ( #14 ) ) ;
#45 = ORIENTED_EDGE ( 'NONE', *, *, #153, .T. ) ;
#46 = DIRECTION ( 'NONE',  ( 0.0000000000000000000, 0.0000000000000000000, 1.000000000000000000 ) ) ;
#47 = EDGE_LOOP ( 'NONE', ( #156, #81, #104 ) ) ;
#48 = DIRECTION ( 'NONE',  ( -1.000000000000000000, -0.0000000000000000000, -0.0000000000000000000 ) ) ;
#49 = APPLICATION_PROTOCOL_DEFINITION ( 'draft international standard', 'automotive_design', 1998, #166 ) ;
#50 = CARTESIAN_POINT ( 'NONE',  ( 597.5696878621455400, 72.14544475735937100, 0.0000000000000000000 ) ) ;
#51 = FACE_OUTER_BOUND ( 'NONE', #149, .T. ) ;
#52 = CARTESIAN_POINT ( 'NONE',  ( 595.6640042398933000, 72.14544475735937100, 0.0000000000000000000 ) ) ;
#53 =( NAMED_UNIT ( * ) PLANE_ANGLE_UNIT ( ) SI_UNIT ( $, .RADIAN. ) );
#54 = EDGE_LOOP ( 'NONE', ( #13, #45, #58 ) ) ;
#55 = AXIS2_PLACEMENT_3D ( 'NONE', #161, #48, #110 ) ;
#56 = VERTEX_POINT ( 'NONE', #135 ) ;
#57 = SHAPE_DEFINITION_REPRESENTATION ( #162, #118 ) ;
#58 = ORIENTED_EDGE ( 'NONE', *, *, #72, .F. ) ;
#59 = EDGE_CURVE ( 'NONE', #42, #106, #121, .T. ) ;
#60 = ORIENTED_EDGE ( 'NONE', *, *, #12, .T. ) ;
#61 = PLANE ( 'NONE',  #3 ) ;
#62 = VECTOR ( 'NONE', #108, 1000.000000000000000 ) ;
#63 = DIRECTION ( 'NONE',  ( -1.000000000000000000, -0.0000000000000000000, -0.0000000000000000000 ) ) ;
#64 = EDGE_CURVE ( 'NONE', #106, #56, #15, .T. ) ;
#65 =( LENGTH_UNIT ( ) NAMED_UNIT ( * ) SI_UNIT ( .MILLI., .METRE. ) );
#66 = DIRECTION ( 'NONE',  ( 0.0000000000000000000, 0.0000000000000000000, 1.000000000000000000 ) ) ;
#67 =( NAMED_UNIT ( * ) PLANE_ANGLE_UNIT ( ) SI_UNIT ( $, .RADIAN. ) );
#68 = AXIS2_PLACEMENT_3D ( 'NONE', #152, #160, #94 ) ;
#69 = MANIFOLD_SOLID_BREP ( 'Ðý×ª1', #125 ) ;
#70 = AXIS2_PLACEMENT_3D ( 'NONE', #140, #63, #18 ) ;
#71 = CARTESIAN_POINT ( 'NONE',  ( 593.4294497669408200, 72.14544475735937100, 0.0000000000000000000 ) ) ;
#72 = EDGE_CURVE ( 'NONE', #106, #42, #123, .T. ) ;
#73 =( NAMED_UNIT ( * ) SI_UNIT ( $, .STERADIAN. ) SOLID_ANGLE_UNIT ( ) );
#74 =( NAMED_UNIT ( * ) PLANE_ANGLE_UNIT ( ) SI_UNIT ( $, .RADIAN. ) );
#75 = DIRECTION ( 'NONE',  ( -0.0000000000000000000, 1.000000000000000000, 1.224646799147353200E-016 ) ) ;
#76 = PRESENTATION_STYLE_ASSIGNMENT (( #128 ) ) ;
#77 = ORIENTED_EDGE ( 'NONE', *, *, #59, .T. ) ;
#78 = CYLINDRICAL_SURFACE ( 'NONE', #79, 2.499992526136349400 ) ;
#79 = AXIS2_PLACEMENT_3D ( 'NONE', #52, #114, #144 ) ;
#80 = ADVANCED_FACE ( 'NONE', ( #24 ), #155, .T. ) ;
#81 = ORIENTED_EDGE ( 'NONE', *, *, #119, .T. ) ;
#82 = ADVANCED_FACE ( 'NONE', ( #34 ), #116, .T. ) ;
#83 = FACE_OUTER_BOUND ( 'NONE', #157, .T. ) ;
#84 =( LENGTH_UNIT ( ) NAMED_UNIT ( * ) SI_UNIT ( .MILLI., .METRE. ) );
#85 = VECTOR ( 'NONE', #150, 1000.000000000000000 ) ;
#86 =( NAMED_UNIT ( * ) SI_UNIT ( $, .STERADIAN. ) SOLID_ANGLE_UNIT ( ) );
#87 = CIRCLE ( 'NONE', #158, 2.499992526136349400 ) ;
#88 = MECHANICAL_DESIGN_GEOMETRIC_PRESENTATION_REPRESENTATION (  '', ( #14 ), #2 ) ;
#89 = ORIENTED_EDGE ( 'NONE', *, *, #20, .F. ) ;
#90 = CIRCLE ( 'NONE', #117, 4.140238095211563200 ) ;
#91 = AXIS2_PLACEMENT_3D ( 'NONE', #109, #154, #36 ) ;
#92 = VERTEX_POINT ( 'NONE', #50 ) ;
#93 = SURFACE_STYLE_FILL_AREA ( #112 ) ;
#94 = DIRECTION ( 'NONE',  ( 0.0000000000000000000, 0.0000000000000000000, 1.000000000000000000 ) ) ;
#95 = SURFACE_STYLE_USAGE ( .BOTH. , #37 ) ;
#96 = CARTESIAN_POINT ( 'NONE',  ( 593.4294497669408200, 72.14544475735937100, 0.0000000000000000000 ) ) ;
#97 = CARTESIAN_POINT ( 'NONE',  ( 593.4294497669408200, 72.14544475735937100, -7.473863611329179000E-006 ) ) ;
#98 = DIRECTION ( 'NONE',  ( -1.000000000000000000, -0.0000000000000000000, -0.0000000000000000000 ) ) ;
#99 = PRODUCT_CONTEXT ( 'NONE', #166, 'mechanical' ) ;
#100 = ORIENTED_EDGE ( 'NONE', *, *, #20, .T. ) ;
#101 =( NAMED_UNIT ( * ) SI_UNIT ( $, .STERADIAN. ) SOLID_ANGLE_UNIT ( ) );
#102 = UNCERTAINTY_MEASURE_WITH_UNIT (LENGTH_MEASURE( 1.000000000000000100E-005 ), #84, 'distance_accuracy_value', 'NONE');
#103 = STYLED_ITEM ( 'NONE', ( #76 ), #118 ) ;
#104 = ORIENTED_EDGE ( 'NONE', *, *, #59, .F. ) ;
#105 = UNCERTAINTY_MEASURE_WITH_UNIT (LENGTH_MEASURE( 1.000000000000000100E-005 ), #65, 'distance_accuracy_value', 'NONE');
#106 = VERTEX_POINT ( 'NONE', #27 ) ;
#107 = PRODUCT_DEFINITION_CONTEXT ( 'detailed design', #40, 'design' ) ;
#108 = DIRECTION ( 'NONE',  ( -1.000000000000000000, -0.0000000000000000000, -0.0000000000000000000 ) ) ;
#109 = CARTESIAN_POINT ( 'NONE',  ( 595.6640042398933000, 72.14544475735937100, 0.0000000000000000000 ) ) ;
#110 = DIRECTION ( 'NONE',  ( 0.0000000000000000000, 0.0000000000000000000, 1.000000000000000000 ) ) ;
#111 = AXIS2_PLACEMENT_3D ( 'NONE', #97, #129, #8 ) ;
#112 = FILL_AREA_STYLE ('',( #136 ) ) ;
#113 = APPLICATION_PROTOCOL_DEFINITION ( 'draft international standard', 'automotive_design', 1998, #40 ) ;
#114 = DIRECTION ( 'NONE',  ( -1.000000000000000000, -0.0000000000000000000, -0.0000000000000000000 ) ) ;
#115 = ADVANCED_FACE ( 'NONE', ( #83 ), #11, .T. ) ;
#116 = TOROIDAL_SURFACE ( 'NONE', #29, -7.473863611329179000E-006, 4.140238095211563200 ) ;
#117 = AXIS2_PLACEMENT_3D ( 'NONE', #39, #75, #130 ) ;
#118 = ADVANCED_BREP_SHAPE_REPRESENTATION ( '100177', ( #69, #23 ), #126 ) ;
#119 = EDGE_CURVE ( 'NONE', #92, #106, #90, .T. ) ;
#120 = PRESENTATION_STYLE_ASSIGNMENT (( #95 ) ) ;
#121 = CIRCLE ( 'NONE', #68, 2.499992526136349400 ) ;
#122 = PRODUCT_DEFINITION_FORMATION_WITH_SPECIFIED_SOURCE ( 'ÈÎºÎ', '', #124, .NOT_KNOWN. ) ;
#123 = CIRCLE ( 'NONE', #70, 2.499992526136349400 ) ;
#124 = PRODUCT ( '100177', '100177', '', ( #99 ) ) ;
#125 = CLOSED_SHELL ( 'NONE', ( #133, #82, #80, #115, #31 ) ) ;
#126 =( GEOMETRIC_REPRESENTATION_CONTEXT ( 3 ) GLOBAL_UNCERTAINTY_ASSIGNED_CONTEXT ( ( #102 ) ) GLOBAL_UNIT_ASSIGNED_CONTEXT ( ( #84, #53, #101 ) ) REPRESENTATION_CONTEXT ( 'NONE', 'WORKASPACE' ) );
#127 = CARTESIAN_POINT ( 'NONE',  ( 596.0696878621456600, 72.14544475735937100, 2.499992526136349400 ) ) ;
#128 = SURFACE_STYLE_USAGE ( .BOTH. , #141 ) ;
#129 = DIRECTION ( 'NONE',  ( 0.0000000000000000000, -1.000000000000000000, 0.0000000000000000000 ) ) ;
#130 = DIRECTION ( 'NONE',  ( 0.0000000000000000000, 0.0000000000000000000, 1.000000000000000000 ) ) ;
#131 = DIRECTION ( 'NONE',  ( 1.000000000000000000, 0.0000000000000000000, 0.0000000000000000000 ) ) ;
#132 = ORIENTED_EDGE ( 'NONE', *, *, #64, .F. ) ;
#133 = ADVANCED_FACE ( 'NONE', ( #51 ), #78, .T. ) ;
#134 = ORIENTED_EDGE ( 'NONE', *, *, #6, .T. ) ;
#135 = CARTESIAN_POINT ( 'NONE',  ( 596.0696878621456600, 72.14544475735937100, -2.499992526136349400 ) ) ;
#136 = FILL_AREA_STYLE_COLOUR ( '', #147 ) ;
#137 = CARTESIAN_POINT ( 'NONE',  ( 595.6640042398933000, 72.14544475735937100, 2.499992526136349400 ) ) ;
#138 = PRODUCT_RELATED_PRODUCT_CATEGORY ( 'part', '', ( #124 ) ) ;
#139 = UNCERTAINTY_MEASURE_WITH_UNIT (LENGTH_MEASURE( 1.000000000000000100E-005 ), #35, 'distance_accuracy_value', 'NONE');
#140 = CARTESIAN_POINT ( 'NONE',  ( 596.7296878621456200, 72.14544475735937100, 0.0000000000000000000 ) ) ;
#141 = SURFACE_SIDE_STYLE ('',( #148 ) ) ;
#142 = CARTESIAN_POINT ( 'NONE',  ( 0.0000000000000000000, 0.0000000000000000000, 0.0000000000000000000 ) ) ;
#143 = ORIENTED_EDGE ( 'NONE', *, *, #12, .F. ) ;
#144 = DIRECTION ( 'NONE',  ( 0.0000000000000000000, 0.0000000000000000000, 1.000000000000000000 ) ) ;
#145 = PRODUCT_DEFINITION ( 'Î´Öª', '', #122, #107 ) ;
#146 = CIRCLE ( 'NONE', #111, 4.140238095211563200 ) ;
#147 = COLOUR_RGB ( '',1.000000000000000000, 1.000000000000000000, 1.000000000000000000 ) ;
#148 = SURFACE_STYLE_FILL_AREA ( #26 ) ;
#149 = EDGE_LOOP ( 'NONE', ( #77, #164, #30, #143 ) ) ;
#150 = DIRECTION ( 'NONE',  ( -1.000000000000000000, -0.0000000000000000000, -0.0000000000000000000 ) ) ;
#151 = MECHANICAL_DESIGN_GEOMETRIC_PRESENTATION_REPRESENTATION (  '', ( #103 ), #41 ) ;
#152 = CARTESIAN_POINT ( 'NONE',  ( 596.7296878621456200, 72.14544475735937100, 0.0000000000000000000 ) ) ;
#153 = EDGE_CURVE ( 'NONE', #92, #42, #146, .T. ) ;
#154 = DIRECTION ( 'NONE',  ( -1.000000000000000000, -0.0000000000000000000, -0.0000000000000000000 ) ) ;
#155 = TOROIDAL_SURFACE ( 'NONE', #4, -7.473863611329179000E-006, 4.140238095211563200 ) ;
#156 = ORIENTED_EDGE ( 'NONE', *, *, #153, .F. ) ;
#157 = EDGE_LOOP ( 'NONE', ( #132, #17, #60, #89 ) ) ;
#158 = AXIS2_PLACEMENT_3D ( 'NONE', #21, #16, #38 ) ;
#159 = LINE ( 'NONE', #137, #85 ) ;
#160 = DIRECTION ( 'NONE',  ( -1.000000000000000000, -0.0000000000000000000, -0.0000000000000000000 ) ) ;
#161 = CARTESIAN_POINT ( 'NONE',  ( 596.0696878621456600, 72.14544475735937100, 0.0000000000000000000 ) ) ;
#162 = PRODUCT_DEFINITION_SHAPE ( 'NONE', 'NONE',  #145 ) ;
#163 = DIRECTION ( 'NONE',  ( -1.000000000000000000, -0.0000000000000000000, -0.0000000000000000000 ) ) ;
#164 = ORIENTED_EDGE ( 'NONE', *, *, #64, .T. ) ;
#165 = CARTESIAN_POINT ( 'NONE',  ( 595.6640042398933000, 72.14544475735937100, -2.499992526136349400 ) ) ;
#166 = APPLICATION_CONTEXT ( 'automotive_design' ) ;
ENDSEC;
END-ISO-10303-21;
