ISO-10303-21;
HEADER;
FILE_DESCRIPTION (( 'STEP AP214' ),
    '1' );
FILE_NAME ('100217.STEP',
    '2019-05-24T01:24:11',
    ( '' ),
    ( '' ),
    'SwSTEP 2.0',
    'SolidWorks 2016',
    '' );
FILE_SCHEMA (( 'AUTOMOTIVE_DESIGN' ));
ENDSEC;

DATA;
#1 = LINE ( 'NONE', #85, #10 ) ;
#2 = DIRECTION ( 'NONE',  ( -1.000000000000000000, -0.0000000000000000000, -0.0000000000000000000 ) ) ;
#3 =( LENGTH_UNIT ( ) NAMED_UNIT ( * ) SI_UNIT ( .MILLI., .METRE. ) );
#4 = PRODUCT_DEFINITION_FORMATION_WITH_SPECIFIED_SOURCE ( 'ÈÎºÎ', '', #57, .NOT_KNOWN. ) ;
#5 = APPLICATION_PROTOCOL_DEFINITION ( 'draft international standard', 'automotive_design', 1998, #33 ) ;
#6 = EDGE_CURVE ( 'NONE', #51, #35, #1, .T. ) ;
#7 = PRESENTATION_LAYER_ASSIGNMENT (  '', '', ( #9 ) ) ;
#8 = ORIENTED_EDGE ( 'NONE', *, *, #114, .T. ) ;
#9 = STYLED_ITEM ( 'NONE', ( #71 ), #107 ) ;
#10 = VECTOR ( 'NONE', #151, 1000.000000000000000 ) ;
#11 = SURFACE_STYLE_FILL_AREA ( #38 ) ;
#12 = ADVANCED_FACE ( 'NONE', ( #25 ), #160, .T. ) ;
#13 = STYLED_ITEM ( 'NONE', ( #83 ), #117 ) ;
#14 = DIRECTION ( 'NONE',  ( -1.000000000000000000, -0.0000000000000000000, -0.0000000000000000000 ) ) ;
#15 = EDGE_CURVE ( 'NONE', #51, #103, #183, .T. ) ;
#16 = ORIENTED_EDGE ( 'NONE', *, *, #161, .T. ) ;
#17 = AXIS2_PLACEMENT_3D ( 'NONE', #166, #47, #102 ) ;
#18 = DIRECTION ( 'NONE',  ( 0.0000000000000000000, 0.0000000000000000000, 1.000000000000000000 ) ) ;
#19 = ORIENTED_EDGE ( 'NONE', *, *, #24, .T. ) ;
#20 = DIRECTION ( 'NONE',  ( 0.0000000000000000000, 0.0000000000000000000, -1.000000000000000000 ) ) ;
#21 = UNCERTAINTY_MEASURE_WITH_UNIT (LENGTH_MEASURE( 1.000000000000000100E-005 ), #158, 'distance_accuracy_value', 'NONE');
#22 = CARTESIAN_POINT ( 'NONE',  ( 54.53091668428863400, 32.62964536423902500, 12.49999999999999300 ) ) ;
#23 = COLOUR_RGB ( '',1.000000000000000000, 1.000000000000000000, 1.000000000000000000 ) ;
#24 = EDGE_CURVE ( 'NONE', #171, #35, #128, .T. ) ;
#25 = FACE_OUTER_BOUND ( 'NONE', #163, .T. ) ;
#26 = EDGE_CURVE ( 'NONE', #165, #51, #113, .T. ) ;
#27 = CLOSED_SHELL ( 'NONE', ( #175, #12, #28, #164, #146 ) ) ;
#28 = ADVANCED_FACE ( 'NONE', ( #111 ), #174, .T. ) ;
#29 = PRODUCT_DEFINITION_CONTEXT ( 'detailed design', #55, 'design' ) ;
#30 = ORIENTED_EDGE ( 'NONE', *, *, #24, .F. ) ;
#31 = CARTESIAN_POINT ( 'NONE',  ( 56.56002426272561900, 32.62964536423902500, -12.49999999999999600 ) ) ;
#32 = CARTESIAN_POINT ( 'NONE',  ( 58.56002426272562600, 32.62964536423902500, 12.49999999999999100 ) ) ;
#33 = APPLICATION_CONTEXT ( 'automotive_design' ) ;
#34 = CARTESIAN_POINT ( 'NONE',  ( 58.56002426272561900, 45.12964536423899600, 1.530808498934186400E-015 ) ) ;
#35 = VERTEX_POINT ( 'NONE', #31 ) ;
#36 = DIRECTION ( 'NONE',  ( 0.0000000000000000000, 0.0000000000000000000, 1.000000000000000000 ) ) ;
#37 = SURFACE_SIDE_STYLE ('',( #70 ) ) ;
#38 = FILL_AREA_STYLE ('',( #92 ) ) ;
#39 = EDGE_CURVE ( 'NONE', #141, #165, #72, .T. ) ;
#40 = AXIS2_PLACEMENT_3D ( 'NONE', #134, #50, #62 ) ;
#41 = ORIENTED_EDGE ( 'NONE', *, *, #42, .F. ) ;
#42 = EDGE_CURVE ( 'NONE', #35, #171, #148, .T. ) ;
#43 = VECTOR ( 'NONE', #178, 1000.000000000000000 ) ;
#44 = ORIENTED_EDGE ( 'NONE', *, *, #26, .T. ) ;
#45 = MECHANICAL_DESIGN_GEOMETRIC_PRESENTATION_REPRESENTATION (  '', ( #13 ), #65 ) ;
#46 = PRODUCT_DEFINITION ( 'Î´Öª', '', #4, #29 ) ;
#47 = DIRECTION ( 'NONE',  ( -1.000000000000000000, -0.0000000000000000000, -0.0000000000000000000 ) ) ;
#48 = DIRECTION ( 'NONE',  ( 0.0000000000000000000, 0.0000000000000000000, 1.000000000000000000 ) ) ;
#49 = AXIS2_PLACEMENT_3D ( 'NONE', #185, #116, #48 ) ;
#50 = DIRECTION ( 'NONE',  ( 0.0000000000000000000, -1.224646799147353200E-016, 1.000000000000000000 ) ) ;
#51 = VERTEX_POINT ( 'NONE', #133 ) ;
#52 = DIRECTION ( 'NONE',  ( 0.0000000000000000000, 0.0000000000000000000, -1.000000000000000000 ) ) ;
#53 = DIRECTION ( 'NONE',  ( -1.000000000000000000, -0.0000000000000000000, -0.0000000000000000000 ) ) ;
#54 =( NAMED_UNIT ( * ) SI_UNIT ( $, .STERADIAN. ) SOLID_ANGLE_UNIT ( ) );
#55 = APPLICATION_CONTEXT ( 'automotive_design' ) ;
#56 = EDGE_LOOP ( 'NONE', ( #81, #184, #126, #177 ) ) ;
#57 = PRODUCT ( '100217', '100217', '', ( #78 ) ) ;
#58 = COLOUR_RGB ( '',1.000000000000000000, 1.000000000000000000, 1.000000000000000000 ) ;
#59 = ORIENTED_EDGE ( 'NONE', *, *, #127, .T. ) ;
#60 = ORIENTED_EDGE ( 'NONE', *, *, #42, .T. ) ;
#61 = DIRECTION ( 'NONE',  ( 0.0000000000000000000, -1.000000000000000000, 0.0000000000000000000 ) ) ;
#62 = DIRECTION ( 'NONE',  ( 0.0000000000000000000, -1.000000000000000000, -1.224646799147353500E-016 ) ) ;
#63 = DIRECTION ( 'NONE',  ( 1.000000000000000000, 0.0000000000000000000, 0.0000000000000000000 ) ) ;
#64 = CARTESIAN_POINT ( 'NONE',  ( -4.866860983176068500, 32.62964536423903900, 0.0000000000000000000 ) ) ;
#65 =( GEOMETRIC_REPRESENTATION_CONTEXT ( 3 ) GLOBAL_UNCERTAINTY_ASSIGNED_CONTEXT ( ( #99 ) ) GLOBAL_UNIT_ASSIGNED_CONTEXT ( ( #3, #66, #54 ) ) REPRESENTATION_CONTEXT ( 'NONE', 'WORKASPACE' ) );
#66 =( NAMED_UNIT ( * ) PLANE_ANGLE_UNIT ( ) SI_UNIT ( $, .RADIAN. ) );
#67 = FACE_OUTER_BOUND ( 'NONE', #84, .T. ) ;
#68 = VERTEX_POINT ( 'NONE', #32 ) ;
#69 = AXIS2_PLACEMENT_3D ( 'NONE', #89, #75, #100 ) ;
#70 = SURFACE_STYLE_FILL_AREA ( #179 ) ;
#71 = PRESENTATION_STYLE_ASSIGNMENT (( #139 ) ) ;
#72 = CIRCLE ( 'NONE', #40, 64.64688524590167200 ) ;
#73 = AXIS2_PLACEMENT_3D ( 'NONE', #64, #20, #156 ) ;
#74 = CARTESIAN_POINT ( 'NONE',  ( -4.866860983176068500, 32.62964536423903900, 0.0000000000000000000 ) ) ;
#75 = DIRECTION ( 'NONE',  ( -1.000000000000000000, -0.0000000000000000000, -0.0000000000000000000 ) ) ;
#76 = PRESENTATION_LAYER_ASSIGNMENT (  '', '', ( #13 ) ) ;
#77 = ORIENTED_EDGE ( 'NONE', *, *, #127, .F. ) ;
#78 = PRODUCT_CONTEXT ( 'NONE', #33, 'mechanical' ) ;
#79 =( NAMED_UNIT ( * ) SI_UNIT ( $, .STERADIAN. ) SOLID_ANGLE_UNIT ( ) );
#80 = FACE_OUTER_BOUND ( 'NONE', #95, .T. ) ;
#81 = ORIENTED_EDGE ( 'NONE', *, *, #39, .F. ) ;
#82 = AXIS2_PLACEMENT_3D ( 'NONE', #121, #53, #36 ) ;
#83 = PRESENTATION_STYLE_ASSIGNMENT (( #108 ) ) ;
#84 = EDGE_LOOP ( 'NONE', ( #19, #60 ) ) ;
#85 = CARTESIAN_POINT ( 'NONE',  ( 54.53091668428863400, 32.62964536423902500, -12.49999999999999300 ) ) ;
#86 = DIRECTION ( 'NONE',  ( 0.0000000000000000000, -1.000000000000000000, 0.0000000000000000000 ) ) ;
#87 = CARTESIAN_POINT ( 'NONE',  ( -4.866860983176068500, 32.62964536423903900, 0.0000000000000000000 ) ) ;
#88 = ORIENTED_EDGE ( 'NONE', *, *, #6, .F. ) ;
#89 = CARTESIAN_POINT ( 'NONE',  ( 56.56002426272561900, 32.62964536423902500, 0.0000000000000000000 ) ) ;
#90 = SURFACE_SIDE_STYLE ('',( #11 ) ) ;
#91 =( LENGTH_UNIT ( ) NAMED_UNIT ( * ) SI_UNIT ( .MILLI., .METRE. ) );
#92 = FILL_AREA_STYLE_COLOUR ( '', #58 ) ;
#93 = ORIENTED_EDGE ( 'NONE', *, *, #39, .T. ) ;
#94 =( NAMED_UNIT ( * ) SI_UNIT ( $, .STERADIAN. ) SOLID_ANGLE_UNIT ( ) );
#95 = EDGE_LOOP ( 'NONE', ( #88, #143, #16, #8, #41 ) ) ;
#96 = AXIS2_PLACEMENT_3D ( 'NONE', #135, #168, #118 ) ;
#97 = ORIENTED_EDGE ( 'NONE', *, *, #122, .F. ) ;
#98 = PRODUCT_RELATED_PRODUCT_CATEGORY ( 'part', '', ( #57 ) ) ;
#99 = UNCERTAINTY_MEASURE_WITH_UNIT (LENGTH_MEASURE( 1.000000000000000100E-005 ), #3, 'distance_accuracy_value', 'NONE');
#100 = DIRECTION ( 'NONE',  ( 0.0000000000000000000, 0.0000000000000000000, 1.000000000000000000 ) ) ;
#101 = CARTESIAN_POINT ( 'NONE',  ( 56.56002426272561900, 32.62964536423902500, 0.0000000000000000000 ) ) ;
#102 = DIRECTION ( 'NONE',  ( 0.0000000000000000000, 0.0000000000000000000, 1.000000000000000000 ) ) ;
#103 = VERTEX_POINT ( 'NONE', #150 ) ;
#104 = DIRECTION ( 'NONE',  ( 0.0000000000000000000, 0.0000000000000000000, 1.000000000000000000 ) ) ;
#105 = FILL_AREA_STYLE_COLOUR ( '', #23 ) ;
#106 = CARTESIAN_POINT ( 'NONE',  ( 54.53091668428863400, 32.62964536423902500, 0.0000000000000000000 ) ) ;
#107 = ADVANCED_BREP_SHAPE_REPRESENTATION ( '100217', ( #117, #96 ), #149 ) ;
#108 = SURFACE_STYLE_USAGE ( .BOTH. , #90 ) ;
#109 =( GEOMETRIC_REPRESENTATION_CONTEXT ( 3 ) GLOBAL_UNCERTAINTY_ASSIGNED_CONTEXT ( ( #21 ) ) GLOBAL_UNIT_ASSIGNED_CONTEXT ( ( #158, #173, #79 ) ) REPRESENTATION_CONTEXT ( 'NONE', 'WORKASPACE' ) );
#110 = CIRCLE ( 'NONE', #131, 12.49999999999999100 ) ;
#111 = FACE_OUTER_BOUND ( 'NONE', #56, .T. ) ;
#112 = CIRCLE ( 'NONE', #73, 64.64688524590167200 ) ;
#113 = CIRCLE ( 'NONE', #17, 12.49999999999999100 ) ;
#114 = EDGE_CURVE ( 'NONE', #68, #171, #152, .T. ) ;
#115 = AXIS2_PLACEMENT_3D ( 'NONE', #170, #180, #120 ) ;
#116 = DIRECTION ( 'NONE',  ( -1.000000000000000000, -0.0000000000000000000, -0.0000000000000000000 ) ) ;
#117 = MANIFOLD_SOLID_BREP ( 'Ðý×ª1', #27 ) ;
#118 = DIRECTION ( 'NONE',  ( 1.000000000000000000, 0.0000000000000000000, 0.0000000000000000000 ) ) ;
#119 = EDGE_LOOP ( 'NONE', ( #44, #124, #30, #137, #59 ) ) ;
#120 = DIRECTION ( 'NONE',  ( 0.0000000000000000000, 0.0000000000000000000, 1.000000000000000000 ) ) ;
#121 = CARTESIAN_POINT ( 'NONE',  ( 58.56002426272562600, 32.62964536423902500, 0.0000000000000000000 ) ) ;
#122 = EDGE_CURVE ( 'NONE', #141, #103, #112, .T. ) ;
#123 =( NAMED_UNIT ( * ) PLANE_ANGLE_UNIT ( ) SI_UNIT ( $, .RADIAN. ) );
#124 = ORIENTED_EDGE ( 'NONE', *, *, #6, .T. ) ;
#125 = AXIS2_PLACEMENT_3D ( 'NONE', #74, #176, #86 ) ;
#126 = ORIENTED_EDGE ( 'NONE', *, *, #15, .F. ) ;
#127 = EDGE_CURVE ( 'NONE', #68, #165, #145, .T. ) ;
#128 = CIRCLE ( 'NONE', #147, 12.49999999999999600 ) ;
#129 = ORIENTED_EDGE ( 'NONE', *, *, #161, .F. ) ;
#130 = DIRECTION ( 'NONE',  ( 0.0000000000000000000, 0.0000000000000000000, 1.000000000000000000 ) ) ;
#131 = AXIS2_PLACEMENT_3D ( 'NONE', #172, #154, #18 ) ;
#132 = MECHANICAL_DESIGN_GEOMETRIC_PRESENTATION_REPRESENTATION (  '', ( #9 ), #109 ) ;
#133 = CARTESIAN_POINT ( 'NONE',  ( 58.56002426272562600, 32.62964536423902500, -12.49999999999999100 ) ) ;
#134 = CARTESIAN_POINT ( 'NONE',  ( -4.866860983176068500, 32.62964536423903900, 0.0000000000000000000 ) ) ;
#135 = CARTESIAN_POINT ( 'NONE',  ( 0.0000000000000000000, 0.0000000000000000000, 0.0000000000000000000 ) ) ;
#136 = CARTESIAN_POINT ( 'NONE',  ( 59.78002426272560400, 32.62964536423903200, 0.0000000000000000000 ) ) ;
#137 = ORIENTED_EDGE ( 'NONE', *, *, #114, .F. ) ;
#138 = CARTESIAN_POINT ( 'NONE',  ( 56.56002426272561900, 32.62964536423902500, 0.0000000000000000000 ) ) ;
#139 = SURFACE_STYLE_USAGE ( .BOTH. , #37 ) ;
#140 = SHAPE_DEFINITION_REPRESENTATION ( #155, #107 ) ;
#141 = VERTEX_POINT ( 'NONE', #136 ) ;
#142 = AXIS2_PLACEMENT_3D ( 'NONE', #106, #2, #153 ) ;
#143 = ORIENTED_EDGE ( 'NONE', *, *, #15, .T. ) ;
#144 = AXIS2_PLACEMENT_3D ( 'NONE', #138, #63, #52 ) ;
#145 = CIRCLE ( 'NONE', #82, 12.49999999999999100 ) ;
#146 = ADVANCED_FACE ( 'NONE', ( #67 ), #186, .F. ) ;
#147 = AXIS2_PLACEMENT_3D ( 'NONE', #101, #14, #130 ) ;
#148 = CIRCLE ( 'NONE', #69, 12.49999999999999600 ) ;
#149 =( GEOMETRIC_REPRESENTATION_CONTEXT ( 3 ) GLOBAL_UNCERTAINTY_ASSIGNED_CONTEXT ( ( #182 ) ) GLOBAL_UNIT_ASSIGNED_CONTEXT ( ( #91, #123, #94 ) ) REPRESENTATION_CONTEXT ( 'NONE', 'WORKASPACE' ) );
#150 = CARTESIAN_POINT ( 'NONE',  ( 58.56002426272561900, 20.12964536423907100, 0.0000000000000000000 ) ) ;
#151 = DIRECTION ( 'NONE',  ( -1.000000000000000000, -0.0000000000000000000, -0.0000000000000000000 ) ) ;
#152 = LINE ( 'NONE', #22, #43 ) ;
#153 = DIRECTION ( 'NONE',  ( 0.0000000000000000000, 0.0000000000000000000, 1.000000000000000000 ) ) ;
#154 = DIRECTION ( 'NONE',  ( -1.000000000000000000, -0.0000000000000000000, -0.0000000000000000000 ) ) ;
#155 = PRODUCT_DEFINITION_SHAPE ( 'NONE', 'NONE',  #46 ) ;
#156 = DIRECTION ( 'NONE',  ( -1.000000000000000000, 0.0000000000000000000, 0.0000000000000000000 ) ) ;
#157 = CYLINDRICAL_SURFACE ( 'NONE', #115, 12.49999999999999300 ) ;
#158 =( LENGTH_UNIT ( ) NAMED_UNIT ( * ) SI_UNIT ( .MILLI., .METRE. ) );
#159 = APPLICATION_PROTOCOL_DEFINITION ( 'draft international standard', 'automotive_design', 1998, #55 ) ;
#160 = SPHERICAL_SURFACE ( 'NONE', #169, 64.64688524590167200 ) ;
#161 = EDGE_CURVE ( 'NONE', #103, #68, #110, .T. ) ;
#162 = CYLINDRICAL_SURFACE ( 'NONE', #142, 12.49999999999999300 ) ;
#163 = EDGE_LOOP ( 'NONE', ( #97, #93, #77, #129 ) ) ;
#164 = ADVANCED_FACE ( 'NONE', ( #80 ), #162, .T. ) ;
#165 = VERTEX_POINT ( 'NONE', #34 ) ;
#166 = CARTESIAN_POINT ( 'NONE',  ( 58.56002426272562600, 32.62964536423902500, 0.0000000000000000000 ) ) ;
#167 = FACE_OUTER_BOUND ( 'NONE', #119, .T. ) ;
#168 = DIRECTION ( 'NONE',  ( 0.0000000000000000000, 0.0000000000000000000, 1.000000000000000000 ) ) ;
#169 = AXIS2_PLACEMENT_3D ( 'NONE', #87, #104, #61 ) ;
#170 = CARTESIAN_POINT ( 'NONE',  ( 54.53091668428863400, 32.62964536423902500, 0.0000000000000000000 ) ) ;
#171 = VERTEX_POINT ( 'NONE', #181 ) ;
#172 = CARTESIAN_POINT ( 'NONE',  ( 58.56002426272562600, 32.62964536423902500, 0.0000000000000000000 ) ) ;
#173 =( NAMED_UNIT ( * ) PLANE_ANGLE_UNIT ( ) SI_UNIT ( $, .RADIAN. ) );
#174 = SPHERICAL_SURFACE ( 'NONE', #125, 64.64688524590167200 ) ;
#175 = ADVANCED_FACE ( 'NONE', ( #167 ), #157, .T. ) ;
#176 = DIRECTION ( 'NONE',  ( 0.0000000000000000000, 0.0000000000000000000, 1.000000000000000000 ) ) ;
#177 = ORIENTED_EDGE ( 'NONE', *, *, #26, .F. ) ;
#178 = DIRECTION ( 'NONE',  ( -1.000000000000000000, -0.0000000000000000000, -0.0000000000000000000 ) ) ;
#179 = FILL_AREA_STYLE ('',( #105 ) ) ;
#180 = DIRECTION ( 'NONE',  ( -1.000000000000000000, -0.0000000000000000000, -0.0000000000000000000 ) ) ;
#181 = CARTESIAN_POINT ( 'NONE',  ( 56.56002426272561900, 32.62964536423902500, 12.49999999999999600 ) ) ;
#182 = UNCERTAINTY_MEASURE_WITH_UNIT (LENGTH_MEASURE( 1.000000000000000100E-005 ), #91, 'distance_accuracy_value', 'NONE');
#183 = CIRCLE ( 'NONE', #49, 12.49999999999999100 ) ;
#184 = ORIENTED_EDGE ( 'NONE', *, *, #122, .T. ) ;
#185 = CARTESIAN_POINT ( 'NONE',  ( 58.56002426272562600, 32.62964536423902500, 0.0000000000000000000 ) ) ;
#186 = PLANE ( 'NONE',  #144 ) ;
ENDSEC;
END-ISO-10303-21;
