ISO-10303-21;
HEADER;
FILE_DESCRIPTION (( 'STEP AP214' ),
    '1' );
FILE_NAME ('100241.STEP',
    '2019-05-28T08:05:46',
    ( '' ),
    ( '' ),
    'SwSTEP 2.0',
    'SolidWorks 2016',
    '' );
FILE_SCHEMA (( 'AUTOMOTIVE_DESIGN' ));
ENDSEC;

DATA;
#1 = ORIENTED_EDGE ( 'NONE', *, *, #177, .F. ) ;
#2 = CIRCLE ( 'NONE', #174, 25.00000000000000700 ) ;
#3 = PRODUCT_DEFINITION_SHAPE ( 'NONE', 'NONE',  #91 ) ;
#4 = VERTEX_POINT ( 'NONE', #143 ) ;
#5 = DIRECTION ( 'NONE',  ( 0.0000000000000000000, 0.0000000000000000000, 1.000000000000000000 ) ) ;
#6 = DIRECTION ( 'NONE',  ( 0.0000000000000000000, 0.0000000000000000000, 1.000000000000000000 ) ) ;
#7 = ORIENTED_EDGE ( 'NONE', *, *, #54, .F. ) ;
#8 = EDGE_CURVE ( 'NONE', #94, #4, #42, .T. ) ;
#9 = DIRECTION ( 'NONE',  ( -1.000000000000000000, -0.0000000000000000000, -0.0000000000000000000 ) ) ;
#10 = DIRECTION ( 'NONE',  ( -1.000000000000000000, -0.0000000000000000000, -0.0000000000000000000 ) ) ;
#11 = CARTESIAN_POINT ( 'NONE',  ( 494.7580713346624200, 116.2374639833831200, 0.0000000000000000000 ) ) ;
#12 = DIRECTION ( 'NONE',  ( 0.0000000000000000000, 1.000000000000000000, 1.224646799147353200E-016 ) ) ;
#13 = DIRECTION ( 'NONE',  ( 1.000000000000000000, 0.0000000000000000000, 0.0000000000000000000 ) ) ;
#14 = VERTEX_POINT ( 'NONE', #142 ) ;
#15 = SURFACE_STYLE_USAGE ( .BOTH. , #87 ) ;
#16 = CLOSED_SHELL ( 'NONE', ( #49, #119, #149, #33, #163 ) ) ;
#17 = MECHANICAL_DESIGN_GEOMETRIC_PRESENTATION_REPRESENTATION (  '', ( #126 ), #134 ) ;
#18 =( LENGTH_UNIT ( ) NAMED_UNIT ( * ) SI_UNIT ( .MILLI., .METRE. ) );
#19 = AXIS2_PLACEMENT_3D ( 'NONE', #116, #46, #45 ) ;
#20 = VERTEX_POINT ( 'NONE', #24 ) ;
#21 =( GEOMETRIC_REPRESENTATION_CONTEXT ( 3 ) GLOBAL_UNCERTAINTY_ASSIGNED_CONTEXT ( ( #105 ) ) GLOBAL_UNIT_ASSIGNED_CONTEXT ( ( #158, #157, #182 ) ) REPRESENTATION_CONTEXT ( 'NONE', 'WORKASPACE' ) );
#22 = DIRECTION ( 'NONE',  ( -1.000000000000000000, -0.0000000000000000000, -0.0000000000000000000 ) ) ;
#23 = ADVANCED_BREP_SHAPE_REPRESENTATION ( '100241', ( #88, #159 ), #21 ) ;
#24 = CARTESIAN_POINT ( 'NONE',  ( 491.7580713346624200, 116.2374639833831200, -25.00000000000000700 ) ) ;
#25 = SHAPE_DEFINITION_REPRESENTATION ( #3, #23 ) ;
#26 = DIRECTION ( 'NONE',  ( -1.000000000000000000, -0.0000000000000000000, -0.0000000000000000000 ) ) ;
#27 = DIRECTION ( 'NONE',  ( 1.000000000000000000, 0.0000000000000000000, 0.0000000000000000000 ) ) ;
#28 = ORIENTED_EDGE ( 'NONE', *, *, #86, .F. ) ;
#29 = CIRCLE ( 'NONE', #89, 25.00000000000000700 ) ;
#30 = DIRECTION ( 'NONE',  ( -1.000000000000000000, -0.0000000000000000000, -0.0000000000000000000 ) ) ;
#31 = FILL_AREA_STYLE ('',( #184 ) ) ;
#32 = CARTESIAN_POINT ( 'NONE',  ( 494.7580713346624200, 116.2374639833831200, 25.00000000000000700 ) ) ;
#33 = ADVANCED_FACE ( 'NONE', ( #77 ), #121, .T. ) ;
#34 = APPLICATION_CONTEXT ( 'automotive_design' ) ;
#35 = EDGE_CURVE ( 'NONE', #14, #20, #70, .T. ) ;
#36 = EDGE_LOOP ( 'NONE', ( #137, #79, #51, #111, #156 ) ) ;
#37 = SURFACE_STYLE_FILL_AREA ( #31 ) ;
#38 = COLOUR_RGB ( '',1.000000000000000000, 1.000000000000000000, 1.000000000000000000 ) ;
#39 = DIRECTION ( 'NONE',  ( -1.000000000000000000, -0.0000000000000000000, -0.0000000000000000000 ) ) ;
#40 = DIRECTION ( 'NONE',  ( -1.000000000000000000, -0.0000000000000000000, -0.0000000000000000000 ) ) ;
#41 = AXIS2_PLACEMENT_3D ( 'NONE', #127, #39, #139 ) ;
#42 = CIRCLE ( 'NONE', #66, 25.00000000000000700 ) ;
#43 = DIRECTION ( 'NONE',  ( 0.0000000000000000000, 0.0000000000000000000, -1.000000000000000000 ) ) ;
#44 = DIRECTION ( 'NONE',  ( 0.0000000000000000000, 0.0000000000000000000, 1.000000000000000000 ) ) ;
#45 = DIRECTION ( 'NONE',  ( 0.0000000000000000000, 1.000000000000000000, 0.0000000000000000000 ) ) ;
#46 = DIRECTION ( 'NONE',  ( -0.0000000000000000000, 0.0000000000000000000, -1.000000000000000000 ) ) ;
#47 = EDGE_CURVE ( 'NONE', #4, #90, #178, .T. ) ;
#48 =( NAMED_UNIT ( * ) SI_UNIT ( $, .STERADIAN. ) SOLID_ANGLE_UNIT ( ) );
#49 = ADVANCED_FACE ( 'NONE', ( #75 ), #167, .T. ) ;
#50 = EDGE_CURVE ( 'NONE', #133, #85, #138, .T. ) ;
#51 = ORIENTED_EDGE ( 'NONE', *, *, #35, .F. ) ;
#52 = AXIS2_PLACEMENT_3D ( 'NONE', #95, #155, #5 ) ;
#53 = FACE_OUTER_BOUND ( 'NONE', #55, .T. ) ;
#54 = EDGE_CURVE ( 'NONE', #133, #4, #145, .T. ) ;
#55 = EDGE_LOOP ( 'NONE', ( #7, #150, #28, #56 ) ) ;
#56 = ORIENTED_EDGE ( 'NONE', *, *, #47, .F. ) ;
#57 = CARTESIAN_POINT ( 'NONE',  ( 491.7580713346624200, 116.2374639833831200, 0.0000000000000000000 ) ) ;
#58 = PRESENTATION_LAYER_ASSIGNMENT (  '', '', ( #118 ) ) ;
#59 = SURFACE_SIDE_STYLE ('',( #37 ) ) ;
#60 = CARTESIAN_POINT ( 'NONE',  ( 491.7580713346624200, 116.2374639833831200, 0.0000000000000000000 ) ) ;
#61 = EDGE_CURVE ( 'NONE', #94, #14, #122, .T. ) ;
#62 = CARTESIAN_POINT ( 'NONE',  ( 487.7862960455463500, 116.2374639833831200, 25.00000000000000700 ) ) ;
#63 = UNCERTAINTY_MEASURE_WITH_UNIT (LENGTH_MEASURE( 1.000000000000000100E-005 ), #181, 'distance_accuracy_value', 'NONE');
#64 = EDGE_LOOP ( 'NONE', ( #1, #172, #108, #132, #65 ) ) ;
#65 = ORIENTED_EDGE ( 'NONE', *, *, #96, .F. ) ;
#66 = AXIS2_PLACEMENT_3D ( 'NONE', #141, #180, #93 ) ;
#67 = VECTOR ( 'NONE', #30, 1000.000000000000000 ) ;
#68 = CARTESIAN_POINT ( 'NONE',  ( 487.7862960455463500, 116.2374639833831200, 0.0000000000000000000 ) ) ;
#69 = SURFACE_STYLE_USAGE ( .BOTH. , #59 ) ;
#70 = CIRCLE ( 'NONE', #41, 25.00000000000000700 ) ;
#71 = CARTESIAN_POINT ( 'NONE',  ( 415.9437173294945800, 116.2374639833831100, 0.0000000000000000000 ) ) ;
#72 = DIRECTION ( 'NONE',  ( 0.0000000000000000000, 1.224646799147353200E-016, -1.000000000000000000 ) ) ;
#73 = CARTESIAN_POINT ( 'NONE',  ( 415.9437173294945800, 116.2374639833831100, 0.0000000000000000000 ) ) ;
#74 = LINE ( 'NONE', #144, #67 ) ;
#75 = FACE_OUTER_BOUND ( 'NONE', #36, .T. ) ;
#76 = AXIS2_PLACEMENT_3D ( 'NONE', #100, #147, #81 ) ;
#77 = FACE_OUTER_BOUND ( 'NONE', #64, .T. ) ;
#78 = AXIS2_PLACEMENT_3D ( 'NONE', #101, #72, #12 ) ;
#79 = ORIENTED_EDGE ( 'NONE', *, *, #177, .T. ) ;
#80 = CARTESIAN_POINT ( 'NONE',  ( 494.7580713346624200, 116.2374639833831200, -25.00000000000000700 ) ) ;
#81 = DIRECTION ( 'NONE',  ( 0.0000000000000000000, 0.0000000000000000000, 1.000000000000000000 ) ) ;
#82 = DIRECTION ( 'NONE',  ( 0.0000000000000000000, 0.0000000000000000000, 1.000000000000000000 ) ) ;
#83 = PRODUCT_DEFINITION_CONTEXT ( 'detailed design', #34, 'design' ) ;
#84 = FILL_AREA_STYLE ('',( #173 ) ) ;
#85 = VERTEX_POINT ( 'NONE', #170 ) ;
#86 = EDGE_CURVE ( 'NONE', #90, #85, #104, .T. ) ;
#87 = SURFACE_SIDE_STYLE ('',( #179 ) ) ;
#88 = MANIFOLD_SOLID_BREP ( 'Ðý×ª1', #16 ) ;
#89 = AXIS2_PLACEMENT_3D ( 'NONE', #60, #26, #183 ) ;
#90 = VERTEX_POINT ( 'NONE', #80 ) ;
#91 = PRODUCT_DEFINITION ( 'Î´Öª', '', #102, #83 ) ;
#92 = EDGE_CURVE ( 'NONE', #85, #94, #2, .T. ) ;
#93 = DIRECTION ( 'NONE',  ( 0.0000000000000000000, 0.0000000000000000000, 1.000000000000000000 ) ) ;
#94 = VERTEX_POINT ( 'NONE', #32 ) ;
#95 = CARTESIAN_POINT ( 'NONE',  ( 487.7862960455463500, 116.2374639833831200, 0.0000000000000000000 ) ) ;
#96 = EDGE_CURVE ( 'NONE', #20, #14, #29, .T. ) ;
#97 =( NAMED_UNIT ( * ) PLANE_ANGLE_UNIT ( ) SI_UNIT ( $, .RADIAN. ) );
#98 = DIRECTION ( 'NONE',  ( -0.0000000000000000000, 0.0000000000000000000, -1.000000000000000000 ) ) ;
#99 = VECTOR ( 'NONE', #10, 1000.000000000000000 ) ;
#100 = CARTESIAN_POINT ( 'NONE',  ( 494.7580713346624200, 116.2374639833831200, 0.0000000000000000000 ) ) ;
#101 = CARTESIAN_POINT ( 'NONE',  ( 415.9437173294945800, 116.2374639833831100, 0.0000000000000000000 ) ) ;
#102 = PRODUCT_DEFINITION_FORMATION_WITH_SPECIFIED_SOURCE ( 'ÈÎºÎ', '', #129, .NOT_KNOWN. ) ;
#103 = ORIENTED_EDGE ( 'NONE', *, *, #35, .T. ) ;
#104 = CIRCLE ( 'NONE', #76, 25.00000000000000700 ) ;
#105 = UNCERTAINTY_MEASURE_WITH_UNIT (LENGTH_MEASURE( 1.000000000000000100E-005 ), #158, 'distance_accuracy_value', 'NONE');
#106 = AXIS2_PLACEMENT_3D ( 'NONE', #71, #169, #27 ) ;
#107 = AXIS2_PLACEMENT_3D ( 'NONE', #110, #22, #44 ) ;
#108 = ORIENTED_EDGE ( 'NONE', *, *, #92, .T. ) ;
#109 = SPHERICAL_SURFACE ( 'NONE', #19, 82.68435400516783300 ) ;
#110 = CARTESIAN_POINT ( 'NONE',  ( 494.7580713346624200, 116.2374639833831200, 0.0000000000000000000 ) ) ;
#111 = ORIENTED_EDGE ( 'NONE', *, *, #61, .F. ) ;
#112 = FACE_OUTER_BOUND ( 'NONE', #153, .T. ) ;
#113 = DIRECTION ( 'NONE',  ( 1.000000000000000000, 0.0000000000000000000, 0.0000000000000000000 ) ) ;
#114 = PLANE ( 'NONE',  #120 ) ;
#115 = AXIS2_PLACEMENT_3D ( 'NONE', #73, #98, #130 ) ;
#116 = CARTESIAN_POINT ( 'NONE',  ( 415.9437173294945800, 116.2374639833831100, 0.0000000000000000000 ) ) ;
#117 = CARTESIAN_POINT ( 'NONE',  ( 498.6280713346624200, 116.2374639833831100, 0.0000000000000000000 ) ) ;
#118 = STYLED_ITEM ( 'NONE', ( #152 ), #88 ) ;
#119 = ADVANCED_FACE ( 'NONE', ( #53 ), #109, .T. ) ;
#120 = AXIS2_PLACEMENT_3D ( 'NONE', #57, #113, #43 ) ;
#121 = CYLINDRICAL_SURFACE ( 'NONE', #136, 25.00000000000000700 ) ;
#122 = LINE ( 'NONE', #62, #99 ) ;
#123 = APPLICATION_PROTOCOL_DEFINITION ( 'draft international standard', 'automotive_design', 1998, #160 ) ;
#124 = ORIENTED_EDGE ( 'NONE', *, *, #50, .F. ) ;
#125 = ORIENTED_EDGE ( 'NONE', *, *, #54, .T. ) ;
#126 = STYLED_ITEM ( 'NONE', ( #148 ), #23 ) ;
#127 = CARTESIAN_POINT ( 'NONE',  ( 491.7580713346624200, 116.2374639833831200, 0.0000000000000000000 ) ) ;
#128 = MECHANICAL_DESIGN_GEOMETRIC_PRESENTATION_REPRESENTATION (  '', ( #118 ), #166 ) ;
#129 = PRODUCT ( '100241', '100241', '', ( #151 ) ) ;
#130 = DIRECTION ( 'NONE',  ( 0.0000000000000000000, 1.000000000000000000, 0.0000000000000000000 ) ) ;
#131 = CARTESIAN_POINT ( 'NONE',  ( 0.0000000000000000000, 0.0000000000000000000, 0.0000000000000000000 ) ) ;
#132 = ORIENTED_EDGE ( 'NONE', *, *, #61, .T. ) ;
#133 = VERTEX_POINT ( 'NONE', #117 ) ;
#134 =( GEOMETRIC_REPRESENTATION_CONTEXT ( 3 ) GLOBAL_UNCERTAINTY_ASSIGNED_CONTEXT ( ( #140 ) ) GLOBAL_UNIT_ASSIGNED_CONTEXT ( ( #18, #185, #48 ) ) REPRESENTATION_CONTEXT ( 'NONE', 'WORKASPACE' ) );
#135 = PRODUCT_RELATED_PRODUCT_CATEGORY ( 'part', '', ( #129 ) ) ;
#136 = AXIS2_PLACEMENT_3D ( 'NONE', #68, #40, #6 ) ;
#137 = ORIENTED_EDGE ( 'NONE', *, *, #47, .T. ) ;
#138 = CIRCLE ( 'NONE', #78, 82.68435400516784700 ) ;
#139 = DIRECTION ( 'NONE',  ( 0.0000000000000000000, 0.0000000000000000000, 1.000000000000000000 ) ) ;
#140 = UNCERTAINTY_MEASURE_WITH_UNIT (LENGTH_MEASURE( 1.000000000000000100E-005 ), #18, 'distance_accuracy_value', 'NONE');
#141 = CARTESIAN_POINT ( 'NONE',  ( 494.7580713346624200, 116.2374639833831200, 0.0000000000000000000 ) ) ;
#142 = CARTESIAN_POINT ( 'NONE',  ( 491.7580713346624200, 116.2374639833831200, 25.00000000000000700 ) ) ;
#143 = CARTESIAN_POINT ( 'NONE',  ( 494.7580713346624200, 141.2374639833830900, 0.0000000000000000000 ) ) ;
#144 = CARTESIAN_POINT ( 'NONE',  ( 487.7862960455463500, 116.2374639833831200, -25.00000000000000700 ) ) ;
#145 = CIRCLE ( 'NONE', #106, 82.68435400516781900 ) ;
#146 = COLOUR_RGB ( '',1.000000000000000000, 1.000000000000000000, 1.000000000000000000 ) ;
#147 = DIRECTION ( 'NONE',  ( -1.000000000000000000, -0.0000000000000000000, -0.0000000000000000000 ) ) ;
#148 = PRESENTATION_STYLE_ASSIGNMENT (( #15 ) ) ;
#149 = ADVANCED_FACE ( 'NONE', ( #112 ), #175, .T. ) ;
#150 = ORIENTED_EDGE ( 'NONE', *, *, #50, .T. ) ;
#151 = PRODUCT_CONTEXT ( 'NONE', #160, 'mechanical' ) ;
#152 = PRESENTATION_STYLE_ASSIGNMENT (( #69 ) ) ;
#153 = EDGE_LOOP ( 'NONE', ( #124, #125, #164, #161 ) ) ;
#154 = PRESENTATION_LAYER_ASSIGNMENT (  '', '', ( #126 ) ) ;
#155 = DIRECTION ( 'NONE',  ( -1.000000000000000000, -0.0000000000000000000, -0.0000000000000000000 ) ) ;
#156 = ORIENTED_EDGE ( 'NONE', *, *, #8, .T. ) ;
#157 =( NAMED_UNIT ( * ) PLANE_ANGLE_UNIT ( ) SI_UNIT ( $, .RADIAN. ) );
#158 =( LENGTH_UNIT ( ) NAMED_UNIT ( * ) SI_UNIT ( .MILLI., .METRE. ) );
#159 = AXIS2_PLACEMENT_3D ( 'NONE', #131, #186, #13 ) ;
#160 = APPLICATION_CONTEXT ( 'automotive_design' ) ;
#161 = ORIENTED_EDGE ( 'NONE', *, *, #92, .F. ) ;
#162 = APPLICATION_PROTOCOL_DEFINITION ( 'draft international standard', 'automotive_design', 1998, #34 ) ;
#163 = ADVANCED_FACE ( 'NONE', ( #176 ), #114, .F. ) ;
#164 = ORIENTED_EDGE ( 'NONE', *, *, #8, .F. ) ;
#165 = EDGE_LOOP ( 'NONE', ( #103, #168 ) ) ;
#166 =( GEOMETRIC_REPRESENTATION_CONTEXT ( 3 ) GLOBAL_UNCERTAINTY_ASSIGNED_CONTEXT ( ( #63 ) ) GLOBAL_UNIT_ASSIGNED_CONTEXT ( ( #181, #97, #171 ) ) REPRESENTATION_CONTEXT ( 'NONE', 'WORKASPACE' ) );
#167 = CYLINDRICAL_SURFACE ( 'NONE', #52, 25.00000000000000700 ) ;
#168 = ORIENTED_EDGE ( 'NONE', *, *, #96, .T. ) ;
#169 = DIRECTION ( 'NONE',  ( -0.0000000000000000000, 0.0000000000000000000, 1.000000000000000000 ) ) ;
#170 = CARTESIAN_POINT ( 'NONE',  ( 494.7580713346624200, 91.23746398338312200, -3.061616997868383000E-015 ) ) ;
#171 =( NAMED_UNIT ( * ) SI_UNIT ( $, .STERADIAN. ) SOLID_ANGLE_UNIT ( ) );
#172 = ORIENTED_EDGE ( 'NONE', *, *, #86, .T. ) ;
#173 = FILL_AREA_STYLE_COLOUR ( '', #146 ) ;
#174 = AXIS2_PLACEMENT_3D ( 'NONE', #11, #9, #82 ) ;
#175 = SPHERICAL_SURFACE ( 'NONE', #115, 82.68435400516783300 ) ;
#176 = FACE_OUTER_BOUND ( 'NONE', #165, .T. ) ;
#177 = EDGE_CURVE ( 'NONE', #90, #20, #74, .T. ) ;
#178 = CIRCLE ( 'NONE', #107, 25.00000000000000700 ) ;
#179 = SURFACE_STYLE_FILL_AREA ( #84 ) ;
#180 = DIRECTION ( 'NONE',  ( -1.000000000000000000, -0.0000000000000000000, -0.0000000000000000000 ) ) ;
#181 =( LENGTH_UNIT ( ) NAMED_UNIT ( * ) SI_UNIT ( .MILLI., .METRE. ) );
#182 =( NAMED_UNIT ( * ) SI_UNIT ( $, .STERADIAN. ) SOLID_ANGLE_UNIT ( ) );
#183 = DIRECTION ( 'NONE',  ( 0.0000000000000000000, 0.0000000000000000000, 1.000000000000000000 ) ) ;
#184 = FILL_AREA_STYLE_COLOUR ( '', #38 ) ;
#185 =( NAMED_UNIT ( * ) PLANE_ANGLE_UNIT ( ) SI_UNIT ( $, .RADIAN. ) );
#186 = DIRECTION ( 'NONE',  ( 0.0000000000000000000, 0.0000000000000000000, 1.000000000000000000 ) ) ;
ENDSEC;
END-ISO-10303-21;
