ISO-10303-21;
HEADER;
FILE_DESCRIPTION (( 'STEP AP214' ),
    '1' );
FILE_NAME ('100095.STEP',
    '2019-05-13T05:41:59',
    ( '' ),
    ( '' ),
    'SwSTEP 2.0',
    'SolidWorks 2016',
    '' );
FILE_SCHEMA (( 'AUTOMOTIVE_DESIGN' ));
ENDSEC;

DATA;
#1 = ORIENTED_EDGE ( 'NONE', *, *, #34, .F. ) ;
#2 =( LENGTH_UNIT ( ) NAMED_UNIT ( * ) SI_UNIT ( .MILLI., .METRE. ) );
#3 = ADVANCED_FACE ( 'NONE', ( #182 ), #139, .T. ) ;
#4 = CARTESIAN_POINT ( 'NONE',  ( 16.38272690664095400, 13.00418907599245200, 0.0000000000000000000 ) ) ;
#5 = DIRECTION ( 'NONE',  ( 1.000000000000000000, 0.0000000000000000000, 0.0000000000000000000 ) ) ;
#6 = ORIENTED_EDGE ( 'NONE', *, *, #156, .T. ) ;
#7 = DIRECTION ( 'NONE',  ( 0.0000000000000000000, 1.224646799147353200E-016, -1.000000000000000000 ) ) ;
#8 = CARTESIAN_POINT ( 'NONE',  ( 22.59474303567322200, 13.00418907599245200, 0.0000000000000000000 ) ) ;
#9 = STYLED_ITEM ( 'NONE', ( #122 ), #52 ) ;
#10 = SURFACE_SIDE_STYLE ('',( #55 ) ) ;
#11 = ORIENTED_EDGE ( 'NONE', *, *, #39, .F. ) ;
#12 = VERTEX_POINT ( 'NONE', #160 ) ;
#13 = UNCERTAINTY_MEASURE_WITH_UNIT (LENGTH_MEASURE( 1.000000000000000100E-005 ), #21, 'distance_accuracy_value', 'NONE');
#14 = VERTEX_POINT ( 'NONE', #19 ) ;
#15 = DIRECTION ( 'NONE',  ( 0.0000000000000000000, 0.0000000000000000000, 1.000000000000000000 ) ) ;
#16 = ORIENTED_EDGE ( 'NONE', *, *, #25, .F. ) ;
#17 = APPLICATION_CONTEXT ( 'automotive_design' ) ;
#18 = VERTEX_POINT ( 'NONE', #109 ) ;
#19 = CARTESIAN_POINT ( 'NONE',  ( 24.07474303567322200, 13.00418907599245200, 3.149999999999999900 ) ) ;
#20 = DIRECTION ( 'NONE',  ( -0.0000000000000000000, 0.0000000000000000000, 1.000000000000000000 ) ) ;
#21 =( LENGTH_UNIT ( ) NAMED_UNIT ( * ) SI_UNIT ( .MILLI., .METRE. ) );
#22 = DIRECTION ( 'NONE',  ( -1.000000000000000000, -0.0000000000000000000, -0.0000000000000000000 ) ) ;
#23 = PRESENTATION_STYLE_ASSIGNMENT (( #57 ) ) ;
#24 = VERTEX_POINT ( 'NONE', #146 ) ;
#25 = EDGE_CURVE ( 'NONE', #129, #12, #115, .T. ) ;
#26 = COLOUR_RGB ( '',1.000000000000000000, 1.000000000000000000, 1.000000000000000000 ) ;
#27 = EDGE_CURVE ( 'NONE', #124, #12, #105, .T. ) ;
#28 = ORIENTED_EDGE ( 'NONE', *, *, #39, .T. ) ;
#29 = AXIS2_PLACEMENT_3D ( 'NONE', #130, #103, #93 ) ;
#30 = APPLICATION_PROTOCOL_DEFINITION ( 'draft international standard', 'automotive_design', 1998, #121 ) ;
#31 = VECTOR ( 'NONE', #22, 1000.000000000000000 ) ;
#32 = APPLICATION_PROTOCOL_DEFINITION ( 'draft international standard', 'automotive_design', 1998, #17 ) ;
#33 = CIRCLE ( 'NONE', #104, 3.149999999999999900 ) ;
#34 = EDGE_CURVE ( 'NONE', #24, #18, #58, .T. ) ;
#35 = CARTESIAN_POINT ( 'NONE',  ( 24.69474303567322300, 13.00418907599245200, 0.0000000000000000000 ) ) ;
#36 = DIRECTION ( 'NONE',  ( -1.000000000000000000, -0.0000000000000000000, -0.0000000000000000000 ) ) ;
#37 = DIRECTION ( 'NONE',  ( -1.000000000000000000, -0.0000000000000000000, -0.0000000000000000000 ) ) ;
#38 = EDGE_LOOP ( 'NONE', ( #131, #110, #149, #70 ) ) ;
#39 = EDGE_CURVE ( 'NONE', #14, #18, #145, .T. ) ;
#40 = DIRECTION ( 'NONE',  ( -1.000000000000000000, -0.0000000000000000000, -0.0000000000000000000 ) ) ;
#41 = MECHANICAL_DESIGN_GEOMETRIC_PRESENTATION_REPRESENTATION (  '', ( #9 ), #108 ) ;
#42 = SPHERICAL_SURFACE ( 'NONE', #29, 8.312016129032269200 ) ;
#43 = EDGE_LOOP ( 'NONE', ( #53, #79, #78, #11, #175 ) ) ;
#44 = PRODUCT_DEFINITION_SHAPE ( 'NONE', 'NONE',  #72 ) ;
#45 = ORIENTED_EDGE ( 'NONE', *, *, #141, .F. ) ;
#46 = FACE_OUTER_BOUND ( 'NONE', #38, .T. ) ;
#47 = ADVANCED_FACE ( 'NONE', ( #97 ), #174, .T. ) ;
#48 = EDGE_LOOP ( 'NONE', ( #126, #64, #163, #28, #1 ) ) ;
#49 = CARTESIAN_POINT ( 'NONE',  ( 0.0000000000000000000, 0.0000000000000000000, 0.0000000000000000000 ) ) ;
#50 = PRODUCT_CONTEXT ( 'NONE', #121, 'mechanical' ) ;
#51 = COLOUR_RGB ( '',1.000000000000000000, 1.000000000000000000, 1.000000000000000000 ) ;
#52 = ADVANCED_BREP_SHAPE_REPRESENTATION ( '100095', ( #135, #125 ), #116 ) ;
#53 = ORIENTED_EDGE ( 'NONE', *, *, #141, .T. ) ;
#54 = CARTESIAN_POINT ( 'NONE',  ( 21.73311486608872700, 13.00418907599245200, -3.149999999999999900 ) ) ;
#55 = SURFACE_STYLE_FILL_AREA ( #99 ) ;
#56 = CARTESIAN_POINT ( 'NONE',  ( 16.38272690664095400, 13.00418907599245200, 0.0000000000000000000 ) ) ;
#57 = SURFACE_STYLE_USAGE ( .BOTH. , #10 ) ;
#58 = CIRCLE ( 'NONE', #89, 3.149999999999999900 ) ;
#59 = UNCERTAINTY_MEASURE_WITH_UNIT (LENGTH_MEASURE( 1.000000000000000100E-005 ), #95, 'distance_accuracy_value', 'NONE');
#60 = DIRECTION ( 'NONE',  ( 0.0000000000000000000, 0.0000000000000000000, 1.000000000000000000 ) ) ;
#61 = CARTESIAN_POINT ( 'NONE',  ( 22.59474303567322200, 13.00418907599245200, 0.0000000000000000000 ) ) ;
#62 =( NAMED_UNIT ( * ) PLANE_ANGLE_UNIT ( ) SI_UNIT ( $, .RADIAN. ) );
#63 = CARTESIAN_POINT ( 'NONE',  ( 22.59474303567322200, 13.00418907599245200, 0.0000000000000000000 ) ) ;
#64 = ORIENTED_EDGE ( 'NONE', *, *, #25, .T. ) ;
#65 = FILL_AREA_STYLE_COLOUR ( '', #51 ) ;
#66 = PLANE ( 'NONE',  #102 ) ;
#67 = DIRECTION ( 'NONE',  ( 0.0000000000000000000, 0.0000000000000000000, 1.000000000000000000 ) ) ;
#68 = ORIENTED_EDGE ( 'NONE', *, *, #34, .T. ) ;
#69 = DIRECTION ( 'NONE',  ( 0.0000000000000000000, 0.0000000000000000000, 1.000000000000000000 ) ) ;
#70 = ORIENTED_EDGE ( 'NONE', *, *, #180, .F. ) ;
#71 = EDGE_CURVE ( 'NONE', #129, #24, #101, .T. ) ;
#72 = PRODUCT_DEFINITION ( 'Î´Öª', '', #171, #96 ) ;
#73 = AXIS2_PLACEMENT_3D ( 'NONE', #170, #119, #60 ) ;
#74 = FACE_OUTER_BOUND ( 'NONE', #91, .T. ) ;
#75 = CIRCLE ( 'NONE', #159, 3.149999999999999900 ) ;
#76 =( NAMED_UNIT ( * ) PLANE_ANGLE_UNIT ( ) SI_UNIT ( $, .RADIAN. ) );
#77 = AXIS2_PLACEMENT_3D ( 'NONE', #127, #36, #136 ) ;
#78 = ORIENTED_EDGE ( 'NONE', *, *, #156, .F. ) ;
#79 = ORIENTED_EDGE ( 'NONE', *, *, #71, .T. ) ;
#80 = PRESENTATION_LAYER_ASSIGNMENT (  '', '', ( #186 ) ) ;
#81 = CARTESIAN_POINT ( 'NONE',  ( 21.73311486608872700, 13.00418907599245200, 0.0000000000000000000 ) ) ;
#82 = CARTESIAN_POINT ( 'NONE',  ( 24.07474303567322200, 13.00418907599245200, -3.149999999999999900 ) ) ;
#83 = DIRECTION ( 'NONE',  ( 0.0000000000000000000, 0.0000000000000000000, 1.000000000000000000 ) ) ;
#84 = CARTESIAN_POINT ( 'NONE',  ( 21.73311486608872700, 13.00418907599245200, 3.149999999999999900 ) ) ;
#85 = CARTESIAN_POINT ( 'NONE',  ( 24.07474303567322200, 13.00418907599245200, 0.0000000000000000000 ) ) ;
#86 = DIRECTION ( 'NONE',  ( 0.0000000000000000000, 1.000000000000000000, 1.224646799147353500E-016 ) ) ;
#87 = VECTOR ( 'NONE', #161, 1000.000000000000000 ) ;
#88 = AXIS2_PLACEMENT_3D ( 'NONE', #85, #37, #178 ) ;
#89 = AXIS2_PLACEMENT_3D ( 'NONE', #8, #148, #69 ) ;
#90 = FACE_OUTER_BOUND ( 'NONE', #123, .T. ) ;
#91 = EDGE_LOOP ( 'NONE', ( #6, #68 ) ) ;
#92 = EDGE_CURVE ( 'NONE', #14, #169, #75, .T. ) ;
#93 = DIRECTION ( 'NONE',  ( 0.0000000000000000000, 1.000000000000000000, 0.0000000000000000000 ) ) ;
#94 =( NAMED_UNIT ( * ) SI_UNIT ( $, .STERADIAN. ) SOLID_ANGLE_UNIT ( ) );
#95 =( LENGTH_UNIT ( ) NAMED_UNIT ( * ) SI_UNIT ( .MILLI., .METRE. ) );
#96 = PRODUCT_DEFINITION_CONTEXT ( 'detailed design', #17, 'design' ) ;
#97 = FACE_OUTER_BOUND ( 'NONE', #48, .T. ) ;
#98 = AXIS2_PLACEMENT_3D ( 'NONE', #128, #40, #168 ) ;
#99 = FILL_AREA_STYLE ('',( #164 ) ) ;
#100 =( NAMED_UNIT ( * ) PLANE_ANGLE_UNIT ( ) SI_UNIT ( $, .RADIAN. ) );
#101 = LINE ( 'NONE', #54, #87 ) ;
#102 = AXIS2_PLACEMENT_3D ( 'NONE', #63, #133, #158 ) ;
#103 = DIRECTION ( 'NONE',  ( -0.0000000000000000000, 0.0000000000000000000, -1.000000000000000000 ) ) ;
#104 = AXIS2_PLACEMENT_3D ( 'NONE', #61, #152, #154 ) ;
#105 = CIRCLE ( 'NONE', #118, 8.312016129032269200 ) ;
#106 = DIRECTION ( 'NONE',  ( 0.0000000000000000000, 1.000000000000000000, 0.0000000000000000000 ) ) ;
#107 = UNCERTAINTY_MEASURE_WITH_UNIT (LENGTH_MEASURE( 1.000000000000000100E-005 ), #2, 'distance_accuracy_value', 'NONE');
#108 =( GEOMETRIC_REPRESENTATION_CONTEXT ( 3 ) GLOBAL_UNCERTAINTY_ASSIGNED_CONTEXT ( ( #107 ) ) GLOBAL_UNIT_ASSIGNED_CONTEXT ( ( #2, #76, #94 ) ) REPRESENTATION_CONTEXT ( 'NONE', 'WORKASPACE' ) );
#109 = CARTESIAN_POINT ( 'NONE',  ( 22.59474303567322200, 13.00418907599245200, 3.149999999999999900 ) ) ;
#110 = ORIENTED_EDGE ( 'NONE', *, *, #114, .T. ) ;
#111 = SHAPE_DEFINITION_REPRESENTATION ( #44, #52 ) ;
#112 = CARTESIAN_POINT ( 'NONE',  ( 24.07474303567322200, 16.15418907599245200, 0.0000000000000000000 ) ) ;
#113 = CARTESIAN_POINT ( 'NONE',  ( 16.38272690664095400, 13.00418907599245200, 0.0000000000000000000 ) ) ;
#114 = EDGE_CURVE ( 'NONE', #124, #169, #140, .T. ) ;
#115 = CIRCLE ( 'NONE', #88, 3.149999999999999900 ) ;
#116 =( GEOMETRIC_REPRESENTATION_CONTEXT ( 3 ) GLOBAL_UNCERTAINTY_ASSIGNED_CONTEXT ( ( #59 ) ) GLOBAL_UNIT_ASSIGNED_CONTEXT ( ( #95, #62, #143 ) ) REPRESENTATION_CONTEXT ( 'NONE', 'WORKASPACE' ) );
#117 = PRODUCT ( '100095', '100095', '', ( #50 ) ) ;
#118 = AXIS2_PLACEMENT_3D ( 'NONE', #56, #7, #86 ) ;
#119 = DIRECTION ( 'NONE',  ( -1.000000000000000000, -0.0000000000000000000, -0.0000000000000000000 ) ) ;
#120 = DIRECTION ( 'NONE',  ( 1.000000000000000000, 0.0000000000000000000, 0.0000000000000000000 ) ) ;
#121 = APPLICATION_CONTEXT ( 'automotive_design' ) ;
#122 = PRESENTATION_STYLE_ASSIGNMENT (( #132 ) ) ;
#123 = EDGE_LOOP ( 'NONE', ( #167, #155, #16, #45 ) ) ;
#124 = VERTEX_POINT ( 'NONE', #35 ) ;
#125 = AXIS2_PLACEMENT_3D ( 'NONE', #49, #15, #120 ) ;
#126 = ORIENTED_EDGE ( 'NONE', *, *, #71, .F. ) ;
#127 = CARTESIAN_POINT ( 'NONE',  ( 21.73311486608872700, 13.00418907599245200, 0.0000000000000000000 ) ) ;
#128 = CARTESIAN_POINT ( 'NONE',  ( 24.07474303567322200, 13.00418907599245200, 0.0000000000000000000 ) ) ;
#129 = VERTEX_POINT ( 'NONE', #82 ) ;
#130 = CARTESIAN_POINT ( 'NONE',  ( 16.38272690664095400, 13.00418907599245200, 0.0000000000000000000 ) ) ;
#131 = ORIENTED_EDGE ( 'NONE', *, *, #27, .F. ) ;
#132 = SURFACE_STYLE_USAGE ( .BOTH. , #173 ) ;
#133 = DIRECTION ( 'NONE',  ( 1.000000000000000000, 0.0000000000000000000, 0.0000000000000000000 ) ) ;
#134 = AXIS2_PLACEMENT_3D ( 'NONE', #81, #176, #67 ) ;
#135 = MANIFOLD_SOLID_BREP ( 'Ðý×ª1', #166 ) ;
#136 = DIRECTION ( 'NONE',  ( 0.0000000000000000000, 0.0000000000000000000, 1.000000000000000000 ) ) ;
#137 =( NAMED_UNIT ( * ) SI_UNIT ( $, .STERADIAN. ) SOLID_ANGLE_UNIT ( ) );
#138 = AXIS2_PLACEMENT_3D ( 'NONE', #113, #20, #5 ) ;
#139 = CYLINDRICAL_SURFACE ( 'NONE', #134, 3.149999999999999900 ) ;
#140 = CIRCLE ( 'NONE', #138, 8.312016129032269200 ) ;
#141 = EDGE_CURVE ( 'NONE', #169, #129, #147, .T. ) ;
#142 = CIRCLE ( 'NONE', #98, 3.149999999999999900 ) ;
#143 =( NAMED_UNIT ( * ) SI_UNIT ( $, .STERADIAN. ) SOLID_ANGLE_UNIT ( ) );
#144 = PRODUCT_RELATED_PRODUCT_CATEGORY ( 'part', '', ( #117 ) ) ;
#145 = LINE ( 'NONE', #84, #31 ) ;
#146 = CARTESIAN_POINT ( 'NONE',  ( 22.59474303567322200, 13.00418907599245200, -3.149999999999999900 ) ) ;
#147 = CIRCLE ( 'NONE', #73, 3.149999999999999900 ) ;
#148 = DIRECTION ( 'NONE',  ( -1.000000000000000000, -0.0000000000000000000, -0.0000000000000000000 ) ) ;
#149 = ORIENTED_EDGE ( 'NONE', *, *, #92, .F. ) ;
#150 = AXIS2_PLACEMENT_3D ( 'NONE', #4, #151, #106 ) ;
#151 = DIRECTION ( 'NONE',  ( -0.0000000000000000000, 0.0000000000000000000, -1.000000000000000000 ) ) ;
#152 = DIRECTION ( 'NONE',  ( -1.000000000000000000, -0.0000000000000000000, -0.0000000000000000000 ) ) ;
#153 = ADVANCED_FACE ( 'NONE', ( #46 ), #157, .T. ) ;
#154 = DIRECTION ( 'NONE',  ( 0.0000000000000000000, 0.0000000000000000000, 1.000000000000000000 ) ) ;
#155 = ORIENTED_EDGE ( 'NONE', *, *, #27, .T. ) ;
#156 = EDGE_CURVE ( 'NONE', #18, #24, #33, .T. ) ;
#157 = SPHERICAL_SURFACE ( 'NONE', #150, 8.312016129032269200 ) ;
#158 = DIRECTION ( 'NONE',  ( 0.0000000000000000000, 0.0000000000000000000, -1.000000000000000000 ) ) ;
#159 = AXIS2_PLACEMENT_3D ( 'NONE', #162, #179, #83 ) ;
#160 = CARTESIAN_POINT ( 'NONE',  ( 24.07474303567322200, 9.854189075992451300, -3.857637417314163200E-016 ) ) ;
#161 = DIRECTION ( 'NONE',  ( -1.000000000000000000, -0.0000000000000000000, -0.0000000000000000000 ) ) ;
#162 = CARTESIAN_POINT ( 'NONE',  ( 24.07474303567322200, 13.00418907599245200, 0.0000000000000000000 ) ) ;
#163 = ORIENTED_EDGE ( 'NONE', *, *, #180, .T. ) ;
#164 = FILL_AREA_STYLE_COLOUR ( '', #26 ) ;
#165 = PRESENTATION_LAYER_ASSIGNMENT (  '', '', ( #9 ) ) ;
#166 = CLOSED_SHELL ( 'NONE', ( #3, #184, #153, #47, #185 ) ) ;
#167 = ORIENTED_EDGE ( 'NONE', *, *, #114, .F. ) ;
#168 = DIRECTION ( 'NONE',  ( 0.0000000000000000000, 0.0000000000000000000, 1.000000000000000000 ) ) ;
#169 = VERTEX_POINT ( 'NONE', #112 ) ;
#170 = CARTESIAN_POINT ( 'NONE',  ( 24.07474303567322200, 13.00418907599245200, 0.0000000000000000000 ) ) ;
#171 = PRODUCT_DEFINITION_FORMATION_WITH_SPECIFIED_SOURCE ( 'ÈÎºÎ', '', #117, .NOT_KNOWN. ) ;
#172 = FILL_AREA_STYLE ('',( #65 ) ) ;
#173 = SURFACE_SIDE_STYLE ('',( #181 ) ) ;
#174 = CYLINDRICAL_SURFACE ( 'NONE', #77, 3.149999999999999900 ) ;
#175 = ORIENTED_EDGE ( 'NONE', *, *, #92, .T. ) ;
#176 = DIRECTION ( 'NONE',  ( -1.000000000000000000, -0.0000000000000000000, -0.0000000000000000000 ) ) ;
#177 =( GEOMETRIC_REPRESENTATION_CONTEXT ( 3 ) GLOBAL_UNCERTAINTY_ASSIGNED_CONTEXT ( ( #13 ) ) GLOBAL_UNIT_ASSIGNED_CONTEXT ( ( #21, #100, #137 ) ) REPRESENTATION_CONTEXT ( 'NONE', 'WORKASPACE' ) );
#178 = DIRECTION ( 'NONE',  ( 0.0000000000000000000, 0.0000000000000000000, 1.000000000000000000 ) ) ;
#179 = DIRECTION ( 'NONE',  ( -1.000000000000000000, -0.0000000000000000000, -0.0000000000000000000 ) ) ;
#180 = EDGE_CURVE ( 'NONE', #12, #14, #142, .T. ) ;
#181 = SURFACE_STYLE_FILL_AREA ( #172 ) ;
#182 = FACE_OUTER_BOUND ( 'NONE', #43, .T. ) ;
#183 = MECHANICAL_DESIGN_GEOMETRIC_PRESENTATION_REPRESENTATION (  '', ( #186 ), #177 ) ;
#184 = ADVANCED_FACE ( 'NONE', ( #90 ), #42, .T. ) ;
#185 = ADVANCED_FACE ( 'NONE', ( #74 ), #66, .F. ) ;
#186 = STYLED_ITEM ( 'NONE', ( #23 ), #135 ) ;
ENDSEC;
END-ISO-10303-21;
