ISO-10303-21;
HEADER;
FILE_DESCRIPTION (( 'STEP AP214' ),
    '1' );
FILE_NAME ('100153.STEP',
    '2019-05-16T02:03:54',
    ( '' ),
    ( '' ),
    'SwSTEP 2.0',
    'SolidWorks 2016',
    '' );
FILE_SCHEMA (( 'AUTOMOTIVE_DESIGN' ));
ENDSEC;

DATA;
#1 = EDGE_LOOP ( 'NONE', ( #76, #105, #180 ) ) ;
#2 = CARTESIAN_POINT ( 'NONE',  ( 472.3335457201286500, 71.94036134155069800, 3.062324864574001600E-015 ) ) ;
#3 = DIRECTION ( 'NONE',  ( -0.9999981134525887100, 0.001942444661693687000, -0.0000000000000000000 ) ) ;
#4 = EDGE_CURVE ( 'NONE', #71, #143, #137, .T. ) ;
#5 = MECHANICAL_DESIGN_GEOMETRIC_PRESENTATION_REPRESENTATION (  '', ( #115 ), #154 ) ;
#6 = DIRECTION ( 'NONE',  ( 0.9999981134525887100, -0.001942444661693687000, 0.0000000000000000000 ) ) ;
#7 = ORIENTED_EDGE ( 'NONE', *, *, #138, .T. ) ;
#8 = DIRECTION ( 'NONE',  ( 0.0000000000000000000, -0.0000000000000000000, -1.000000000000000000 ) ) ;
#9 = DIRECTION ( 'NONE',  ( -0.001942444661694165800, -0.9999981134525887100, 0.0000000000000000000 ) ) ;
#10 = DIRECTION ( 'NONE',  ( -0.9999981134525887100, 0.001942444661693687000, -0.0000000000000000000 ) ) ;
#11 = DIRECTION ( 'NONE',  ( -1.000000000000000000, 0.0000000000000000000, 0.0000000000000000000 ) ) ;
#12 =( NAMED_UNIT ( * ) SI_UNIT ( $, .STERADIAN. ) SOLID_ANGLE_UNIT ( ) );
#13 = PRESENTATION_STYLE_ASSIGNMENT (( #166 ) ) ;
#14 = EDGE_CURVE ( 'NONE', #71, #89, #100, .T. ) ;
#15 = PRODUCT_DEFINITION_FORMATION_WITH_SPECIFIED_SOURCE ( 'ÈÎºÎ', '', #96, .NOT_KNOWN. ) ;
#16 = EDGE_LOOP ( 'NONE', ( #128, #155, #82, #107 ) ) ;
#17 = AXIS2_PLACEMENT_3D ( 'NONE', #136, #87, #73 ) ;
#18 = DIRECTION ( 'NONE',  ( -3.870601755773250800E-016, 1.000000000000000000, 1.224644488793104600E-016 ) ) ;
#19 = STYLED_ITEM ( 'NONE', ( #152 ), #169 ) ;
#20 = TOROIDAL_SURFACE ( 'NONE', #67, -0.05799166233284062200, 41.28498813760374000 ) ;
#21 = DIRECTION ( 'NONE',  ( -0.001942444661694165800, -0.9999981134525887100, 0.0000000000000000000 ) ) ;
#22 = FACE_OUTER_BOUND ( 'NONE', #131, .T. ) ;
#23 = CARTESIAN_POINT ( 'NONE',  ( 472.2364010317221500, 21.92889535013083300, 0.0000000000000000000 ) ) ;
#24 = DIRECTION ( 'NONE',  ( -0.9999981134525887100, 0.001942444661693687000, -0.0000000000000000000 ) ) ;
#25 = PRODUCT_DEFINITION_SHAPE ( 'NONE', 'NONE',  #29 ) ;
#26 = APPLICATION_PROTOCOL_DEFINITION ( 'draft international standard', 'automotive_design', 1998, #112 ) ;
#27 = PRODUCT_RELATED_PRODUCT_CATEGORY ( 'part', '', ( #96 ) ) ;
#28 = ORIENTED_EDGE ( 'NONE', *, *, #94, .T. ) ;
#29 = PRODUCT_DEFINITION ( 'Î´Öª', '', #15, #157 ) ;
#30 = ORIENTED_EDGE ( 'NONE', *, *, #118, .F. ) ;
#31 = CARTESIAN_POINT ( 'NONE',  ( 469.2364236702696900, 21.94054999611389100, 3.061611221982760700E-015 ) ) ;
#32 = FACE_OUTER_BOUND ( 'NONE', #187, .T. ) ;
#33 = AXIS2_PLACEMENT_3D ( 'NONE', #34, #79, #93 ) ;
#34 = CARTESIAN_POINT ( 'NONE',  ( 472.2849733759254000, 46.93462834584075000, 0.0000000000000000000 ) ) ;
#35 = DIRECTION ( 'NONE',  ( -0.001942444661694358400, -0.9999981134525884900, 0.0000000000000000000 ) ) ;
#36 = CARTESIAN_POINT ( 'NONE',  ( 0.0000000000000000000, 0.0000000000000000000, 0.0000000000000000000 ) ) ;
#37 = CARTESIAN_POINT ( 'NONE',  ( 469.3335457201287100, 71.94036134155068400, 0.0000000000000000000 ) ) ;
#38 = APPLICATION_PROTOCOL_DEFINITION ( 'draft international standard', 'automotive_design', 1998, #66 ) ;
#39 = CLOSED_SHELL ( 'NONE', ( #51, #156, #50, #146, #101, #174 ) ) ;
#40 = AXIS2_PLACEMENT_3D ( 'NONE', #132, #6, #179 ) ;
#41 = CIRCLE ( 'NONE', #61, 25.00578017029979300 ) ;
#42 = CARTESIAN_POINT ( 'NONE',  ( 439.4786702281198800, 46.99835289447948800, 0.0000000000000000000 ) ) ;
#43 = AXIS2_PLACEMENT_3D ( 'NONE', #185, #8, #11 ) ;
#44 = ORIENTED_EDGE ( 'NONE', *, *, #178, .T. ) ;
#45 = CARTESIAN_POINT ( 'NONE',  ( 469.2364236702696900, 21.94054999611388700, 0.0000000000000000000 ) ) ;
#46 = DIRECTION ( 'NONE',  ( -0.001942444661693686800, -0.9999981134525886000, 0.0000000000000000000 ) ) ;
#47 = CARTESIAN_POINT ( 'NONE',  ( 439.4786702281198800, 46.99835289447948800, 0.0000000000000000000 ) ) ;
#48 = COLOUR_RGB ( '',1.000000000000000000, 1.000000000000000000, 1.000000000000000000 ) ;
#49 =( LENGTH_UNIT ( ) NAMED_UNIT ( * ) SI_UNIT ( .MILLI., .METRE. ) );
#50 = ADVANCED_FACE ( 'NONE', ( #32 ), #177, .T. ) ;
#51 = ADVANCED_FACE ( 'NONE', ( #164 ), #134, .F. ) ;
#52 = AXIS2_PLACEMENT_3D ( 'NONE', #140, #10, #9 ) ;
#53 = FACE_OUTER_BOUND ( 'NONE', #1, .T. ) ;
#54 = VECTOR ( 'NONE', #77, 1000.000000000000100 ) ;
#55 = ORIENTED_EDGE ( 'NONE', *, *, #173, .F. ) ;
#56 = AXIS2_PLACEMENT_3D ( 'NONE', #36, #68, #114 ) ;
#57 = CARTESIAN_POINT ( 'NONE',  ( 469.2849846951991700, 46.94045566883228600, 0.0000000000000000000 ) ) ;
#58 = ORIENTED_EDGE ( 'NONE', *, *, #109, .F. ) ;
#59 = DIRECTION ( 'NONE',  ( -2.378808637464037400E-019, -1.224644488793104600E-016, 1.000000000000000000 ) ) ;
#60 = CARTESIAN_POINT ( 'NONE',  ( 472.2849733759254000, 46.93462834584075000, 0.0000000000000000000 ) ) ;
#61 = AXIS2_PLACEMENT_3D ( 'NONE', #60, #24, #162 ) ;
#62 = SHAPE_DEFINITION_REPRESENTATION ( #25, #169 ) ;
#63 = FILL_AREA_STYLE_COLOUR ( '', #190 ) ;
#64 = VECTOR ( 'NONE', #18, 1000.000000000000000 ) ;
#65 = UNCERTAINTY_MEASURE_WITH_UNIT (LENGTH_MEASURE( 1.000000000000000100E-005 ), #153, 'distance_accuracy_value', 'NONE');
#66 = APPLICATION_CONTEXT ( 'automotive_design' ) ;
#67 = AXIS2_PLACEMENT_3D ( 'NONE', #47, #183, #46 ) ;
#68 = DIRECTION ( 'NONE',  ( 0.0000000000000000000, 0.0000000000000000000, 1.000000000000000000 ) ) ;
#69 = FACE_OUTER_BOUND ( 'NONE', #16, .T. ) ;
#70 = CIRCLE ( 'NONE', #106, 41.28498813760374000 ) ;
#71 = VERTEX_POINT ( 'NONE', #119 ) ;
#72 = AXIS2_PLACEMENT_3D ( 'NONE', #57, #142, #21 ) ;
#73 = DIRECTION ( 'NONE',  ( -0.001942444661694165800, -0.9999981134525887100, 0.0000000000000000000 ) ) ;
#74 = CONICAL_SURFACE ( 'NONE', #33, 25.00578017029978600, 0.001942445883198603100 ) ;
#75 = PRESENTATION_LAYER_ASSIGNMENT (  '', '', ( #19 ) ) ;
#76 = ORIENTED_EDGE ( 'NONE', *, *, #138, .F. ) ;
#77 = DIRECTION ( 'NONE',  ( -0.003884881994359863700, -0.9999924538174724800, 0.0000000000000000000 ) ) ;
#78 =( NAMED_UNIT ( * ) SI_UNIT ( $, .STERADIAN. ) SOLID_ANGLE_UNIT ( ) );
#79 = DIRECTION ( 'NONE',  ( 0.9999981134525887100, -0.001942444661693687000, 0.0000000000000000000 ) ) ;
#80 =( NAMED_UNIT ( * ) PLANE_ANGLE_UNIT ( ) SI_UNIT ( $, .RADIAN. ) );
#81 =( NAMED_UNIT ( * ) PLANE_ANGLE_UNIT ( ) SI_UNIT ( $, .RADIAN. ) );
#82 = ORIENTED_EDGE ( 'NONE', *, *, #109, .T. ) ;
#83 =( NAMED_UNIT ( * ) PLANE_ANGLE_UNIT ( ) SI_UNIT ( $, .RADIAN. ) );
#84 = MECHANICAL_DESIGN_GEOMETRIC_PRESENTATION_REPRESENTATION (  '', ( #19 ), #159 ) ;
#85 = SURFACE_STYLE_FILL_AREA ( #125 ) ;
#86 = CARTESIAN_POINT ( 'NONE',  ( 469.2849846951991700, 46.94045566883228600, 0.0000000000000000000 ) ) ;
#87 = DIRECTION ( 'NONE',  ( -0.9999981134525887100, 0.001942444661693687000, -0.0000000000000000000 ) ) ;
#88 = DIRECTION ( 'NONE',  ( -0.001942444661693686800, -0.9999981134525886000, 0.0000000000000000000 ) ) ;
#89 = VERTEX_POINT ( 'NONE', #31 ) ;
#90 = CARTESIAN_POINT ( 'NONE',  ( 472.2849733759254000, 46.93462834584075000, 0.0000000000000000000 ) ) ;
#91 = DIRECTION ( 'NONE',  ( 0.0000000000000000000, -1.000000000000000000, -1.224644488793104600E-016 ) ) ;
#92 = ORIENTED_EDGE ( 'NONE', *, *, #14, .T. ) ;
#93 = DIRECTION ( 'NONE',  ( 0.001942444661694358800, 0.9999981134525884900, 0.0000000000000000000 ) ) ;
#94 = EDGE_CURVE ( 'NONE', #89, #143, #147, .T. ) ;
#95 =( NAMED_UNIT ( * ) SI_UNIT ( $, .STERADIAN. ) SOLID_ANGLE_UNIT ( ) );
#96 = PRODUCT ( '100153', '100153', '', ( #99 ) ) ;
#97 = VECTOR ( 'NONE', #111, 1000.000000000000000 ) ;
#98 = VERTEX_POINT ( 'NONE', #2 ) ;
#99 = PRODUCT_CONTEXT ( 'NONE', #112, 'mechanical' ) ;
#100 = LINE ( 'NONE', #45, #54 ) ;
#101 = ADVANCED_FACE ( 'NONE', ( #22 ), #171, .T. ) ;
#102 = LINE ( 'NONE', #122, #158 ) ;
#103 = ORIENTED_EDGE ( 'NONE', *, *, #4, .F. ) ;
#104 = PRESENTATION_LAYER_ASSIGNMENT (  '', '', ( #115 ) ) ;
#105 = ORIENTED_EDGE ( 'NONE', *, *, #151, .T. ) ;
#106 = AXIS2_PLACEMENT_3D ( 'NONE', #184, #59, #91 ) ;
#107 = ORIENTED_EDGE ( 'NONE', *, *, #178, .F. ) ;
#108 = ORIENTED_EDGE ( 'NONE', *, *, #118, .T. ) ;
#109 = EDGE_CURVE ( 'NONE', #176, #98, #113, .T. ) ;
#110 =( LENGTH_UNIT ( ) NAMED_UNIT ( * ) SI_UNIT ( .MILLI., .METRE. ) );
#111 = DIRECTION ( 'NONE',  ( 1.000000000000000000, -6.548581121812446800E-016, 0.0000000000000000000 ) ) ;
#112 = APPLICATION_CONTEXT ( 'automotive_design' ) ;
#113 = CIRCLE ( 'NONE', #116, 25.00578017029979300 ) ;
#114 = DIRECTION ( 'NONE',  ( 1.000000000000000000, 0.0000000000000000000, 0.0000000000000000000 ) ) ;
#115 = STYLED_ITEM ( 'NONE', ( #13 ), #148 ) ;
#116 = AXIS2_PLACEMENT_3D ( 'NONE', #90, #123, #35 ) ;
#117 = SURFACE_STYLE_FILL_AREA ( #168 ) ;
#118 = EDGE_CURVE ( 'NONE', #143, #89, #145, .T. ) ;
#119 = CARTESIAN_POINT ( 'NONE',  ( 469.3335457201287100, 46.94036134155068400, 0.0000000000000000000 ) ) ;
#120 = UNCERTAINTY_MEASURE_WITH_UNIT (LENGTH_MEASURE( 1.000000000000000100E-005 ), #49, 'distance_accuracy_value', 'NONE');
#121 = ORIENTED_EDGE ( 'NONE', *, *, #14, .F. ) ;
#122 = CARTESIAN_POINT ( 'NONE',  ( 472.2364010317221000, 21.92889535013081200, 3.062324864573999700E-015 ) ) ;
#123 = DIRECTION ( 'NONE',  ( -0.9999981134525887100, 0.001942444661693687000, -0.0000000000000000000 ) ) ;
#124 = CARTESIAN_POINT ( 'NONE',  ( 480.7635397502043600, 46.91815916877833100, 0.0000000000000000000 ) ) ;
#125 = FILL_AREA_STYLE ('',( #126 ) ) ;
#126 = FILL_AREA_STYLE_COLOUR ( '', #48 ) ;
#127 =( GEOMETRIC_REPRESENTATION_CONTEXT ( 3 ) GLOBAL_UNCERTAINTY_ASSIGNED_CONTEXT ( ( #135 ) ) GLOBAL_UNIT_ASSIGNED_CONTEXT ( ( #110, #81, #95 ) ) REPRESENTATION_CONTEXT ( 'NONE', 'WORKASPACE' ) );
#128 = ORIENTED_EDGE ( 'NONE', *, *, #94, .F. ) ;
#129 = CONICAL_SURFACE ( 'NONE', #52, 24.99995283631470900, 1.568853880911697000 ) ;
#130 = EDGE_LOOP ( 'NONE', ( #121, #161, #108 ) ) ;
#131 = EDGE_LOOP ( 'NONE', ( #55, #30, #44, #144 ) ) ;
#132 = CARTESIAN_POINT ( 'NONE',  ( 472.2849733759254000, 46.93462834584075000, 0.0000000000000000000 ) ) ;
#133 = DIRECTION ( 'NONE',  ( -0.9999981134525887100, 0.001942444661693687000, -0.0000000000000000000 ) ) ;
#134 = CONICAL_SURFACE ( 'NONE', #17, 24.99995283631470900, 1.568853880911697000 ) ;
#135 = UNCERTAINTY_MEASURE_WITH_UNIT (LENGTH_MEASURE( 1.000000000000000100E-005 ), #110, 'distance_accuracy_value', 'NONE');
#136 = CARTESIAN_POINT ( 'NONE',  ( 469.2849846951991700, 46.94045566883228600, 0.0000000000000000000 ) ) ;
#137 = LINE ( 'NONE', #149, #64 ) ;
#138 = EDGE_CURVE ( 'NONE', #172, #98, #70, .T. ) ;
#139 = CARTESIAN_POINT ( 'NONE',  ( 472.3335457201287100, 71.94036134155068400, 0.0000000000000000000 ) ) ;
#140 = CARTESIAN_POINT ( 'NONE',  ( 469.2849846951991700, 46.94045566883228600, 0.0000000000000000000 ) ) ;
#141 = SURFACE_SIDE_STYLE ('',( #85 ) ) ;
#142 = DIRECTION ( 'NONE',  ( -0.9999981134525887100, 0.001942444661693687000, -0.0000000000000000000 ) ) ;
#143 = VERTEX_POINT ( 'NONE', #37 ) ;
#144 = ORIENTED_EDGE ( 'NONE', *, *, #163, .T. ) ;
#145 = CIRCLE ( 'NONE', #72, 24.99995283631470900 ) ;
#146 = ADVANCED_FACE ( 'NONE', ( #53 ), #20, .T. ) ;
#147 = CIRCLE ( 'NONE', #189, 24.99995283631470900 ) ;
#148 = MANIFOLD_SOLID_BREP ( 'Ðý×ª1', #39 ) ;
#149 = CARTESIAN_POINT ( 'NONE',  ( 469.3335457201287100, 71.94036134155068400, 3.061611221982760700E-015 ) ) ;
#150 = SURFACE_STYLE_USAGE ( .BOTH. , #181 ) ;
#151 = EDGE_CURVE ( 'NONE', #172, #176, #170, .T. ) ;
#152 = PRESENTATION_STYLE_ASSIGNMENT (( #150 ) ) ;
#153 =( LENGTH_UNIT ( ) NAMED_UNIT ( * ) SI_UNIT ( .MILLI., .METRE. ) );
#154 =( GEOMETRIC_REPRESENTATION_CONTEXT ( 3 ) GLOBAL_UNCERTAINTY_ASSIGNED_CONTEXT ( ( #65 ) ) GLOBAL_UNIT_ASSIGNED_CONTEXT ( ( #153, #80, #78 ) ) REPRESENTATION_CONTEXT ( 'NONE', 'WORKASPACE' ) );
#155 = ORIENTED_EDGE ( 'NONE', *, *, #173, .T. ) ;
#156 = ADVANCED_FACE ( 'NONE', ( #69 ), #74, .T. ) ;
#157 = PRODUCT_DEFINITION_CONTEXT ( 'detailed design', #66, 'design' ) ;
#158 = VECTOR ( 'NONE', #167, 1000.000000000000100 ) ;
#159 =( GEOMETRIC_REPRESENTATION_CONTEXT ( 3 ) GLOBAL_UNCERTAINTY_ASSIGNED_CONTEXT ( ( #120 ) ) GLOBAL_UNIT_ASSIGNED_CONTEXT ( ( #49, #83, #12 ) ) REPRESENTATION_CONTEXT ( 'NONE', 'WORKASPACE' ) );
#160 = DIRECTION ( 'NONE',  ( -0.001942444661694165800, -0.9999981134525887100, 0.0000000000000000000 ) ) ;
#161 = ORIENTED_EDGE ( 'NONE', *, *, #4, .T. ) ;
#162 = DIRECTION ( 'NONE',  ( -0.001942444661694358400, -0.9999981134525884900, 0.0000000000000000000 ) ) ;
#163 = EDGE_CURVE ( 'NONE', #98, #176, #41, .T. ) ;
#164 = FACE_OUTER_BOUND ( 'NONE', #130, .T. ) ;
#165 = FACE_OUTER_BOUND ( 'NONE', #182, .T. ) ;
#166 = SURFACE_STYLE_USAGE ( .BOTH. , #141 ) ;
#167 = DIRECTION ( 'NONE',  ( 0.9999924538174724800, -0.003884881994358822000, 2.378808637463235200E-019 ) ) ;
#168 = FILL_AREA_STYLE ('',( #63 ) ) ;
#169 = ADVANCED_BREP_SHAPE_REPRESENTATION ( '100153', ( #148, #56 ), #127 ) ;
#170 = CIRCLE ( 'NONE', #43, 41.28498813760372600 ) ;
#171 = CONICAL_SURFACE ( 'NONE', #40, 25.00578017029978600, 0.001942445883198603100 ) ;
#172 = VERTEX_POINT ( 'NONE', #124 ) ;
#173 = EDGE_CURVE ( 'NONE', #89, #176, #102, .T. ) ;
#174 = ADVANCED_FACE ( 'NONE', ( #165 ), #129, .F. ) ;
#175 = LINE ( 'NONE', #139, #97 ) ;
#176 = VERTEX_POINT ( 'NONE', #23 ) ;
#177 = TOROIDAL_SURFACE ( 'NONE', #186, -0.05799166233284062200, 41.28498813760374000 ) ;
#178 = EDGE_CURVE ( 'NONE', #143, #98, #175, .T. ) ;
#179 = DIRECTION ( 'NONE',  ( 0.001942444661694358800, 0.9999981134525884900, 0.0000000000000000000 ) ) ;
#180 = ORIENTED_EDGE ( 'NONE', *, *, #163, .F. ) ;
#181 = SURFACE_SIDE_STYLE ('',( #117 ) ) ;
#182 = EDGE_LOOP ( 'NONE', ( #103, #92, #28 ) ) ;
#183 = DIRECTION ( 'NONE',  ( -0.9999981134525887100, 0.001942444661693687000, -0.0000000000000000000 ) ) ;
#184 = CARTESIAN_POINT ( 'NONE',  ( 439.4785575825249600, 46.94036134155067000, -7.101930365314741300E-018 ) ) ;
#185 = CARTESIAN_POINT ( 'NONE',  ( 439.4787828737148100, 47.05634444740831400, 0.0000000000000000000 ) ) ;
#186 = AXIS2_PLACEMENT_3D ( 'NONE', #42, #133, #88 ) ;
#187 = EDGE_LOOP ( 'NONE', ( #188, #7, #58 ) ) ;
#188 = ORIENTED_EDGE ( 'NONE', *, *, #151, .F. ) ;
#189 = AXIS2_PLACEMENT_3D ( 'NONE', #86, #3, #160 ) ;
#190 = COLOUR_RGB ( '',1.000000000000000000, 1.000000000000000000, 1.000000000000000000 ) ;
ENDSEC;
END-ISO-10303-21;
