ISO-10303-21;
HEADER;
FILE_DESCRIPTION (( 'STEP AP214' ),
    '1' );
FILE_NAME ('100349.STEP',
    '2019-06-03T03:07:06',
    ( '' ),
    ( '' ),
    'SwSTEP 2.0',
    'SolidWorks 2016',
    '' );
FILE_SCHEMA (( 'AUTOMOTIVE_DESIGN' ));
ENDSEC;

DATA;
#1 = ORIENTED_EDGE ( 'NONE', *, *, #11, .F. ) ;
#2 = SURFACE_SIDE_STYLE ('',( #164 ) ) ;
#3 = EDGE_CURVE ( 'NONE', #124, #29, #55, .T. ) ;
#4 = FACE_OUTER_BOUND ( 'NONE', #8, .T. ) ;
#5 = DIRECTION ( 'NONE',  ( -1.000000000000000000, -0.0000000000000000000, -0.0000000000000000000 ) ) ;
#6 = SPHERICAL_SURFACE ( 'NONE', #132, 4.593999999999998500 ) ;
#7 = AXIS2_PLACEMENT_3D ( 'NONE', #175, #123, #156 ) ;
#8 = EDGE_LOOP ( 'NONE', ( #98, #19, #39, #87, #78 ) ) ;
#9 = CARTESIAN_POINT ( 'NONE',  ( 389.1145466373510000, 105.8764748864466600, 0.0000000000000000000 ) ) ;
#10 =( NAMED_UNIT ( * ) PLANE_ANGLE_UNIT ( ) SI_UNIT ( $, .RADIAN. ) );
#11 = EDGE_CURVE ( 'NONE', #34, #124, #130, .T. ) ;
#12 = CARTESIAN_POINT ( 'NONE',  ( 392.4585466373510500, 105.8764748864466600, 3.149999999999999900 ) ) ;
#13 = DIRECTION ( 'NONE',  ( -1.000000000000000000, -0.0000000000000000000, -0.0000000000000000000 ) ) ;
#14 = ORIENTED_EDGE ( 'NONE', *, *, #30, .T. ) ;
#15 = APPLICATION_CONTEXT ( 'automotive_design' ) ;
#16 = PRESENTATION_LAYER_ASSIGNMENT (  '', '', ( #173 ) ) ;
#17 = UNCERTAINTY_MEASURE_WITH_UNIT (LENGTH_MEASURE( 1.000000000000000100E-005 ), #37, 'distance_accuracy_value', 'NONE');
#18 =( NAMED_UNIT ( * ) SI_UNIT ( $, .STERADIAN. ) SOLID_ANGLE_UNIT ( ) );
#19 = ORIENTED_EDGE ( 'NONE', *, *, #169, .T. ) ;
#20 = ORIENTED_EDGE ( 'NONE', *, *, #100, .F. ) ;
#21 = ORIENTED_EDGE ( 'NONE', *, *, #11, .T. ) ;
#22 = CARTESIAN_POINT ( 'NONE',  ( 390.9585466373510500, 105.8764748864466600, 0.0000000000000000000 ) ) ;
#23 = MECHANICAL_DESIGN_GEOMETRIC_PRESENTATION_REPRESENTATION (  '', ( #173 ), #79 ) ;
#24 = DIRECTION ( 'NONE',  ( -1.000000000000000000, -0.0000000000000000000, -0.0000000000000000000 ) ) ;
#25 = APPLICATION_PROTOCOL_DEFINITION ( 'draft international standard', 'automotive_design', 1998, #15 ) ;
#26 = PRODUCT_DEFINITION_SHAPE ( 'NONE', 'NONE',  #76 ) ;
#27 = CARTESIAN_POINT ( 'NONE',  ( 390.0979085486019900, 105.8764748864466600, -3.149999999999999900 ) ) ;
#28 =( NAMED_UNIT ( * ) PLANE_ANGLE_UNIT ( ) SI_UNIT ( $, .RADIAN. ) );
#29 = VERTEX_POINT ( 'NONE', #116 ) ;
#30 = EDGE_CURVE ( 'NONE', #29, #167, #144, .T. ) ;
#31 = CYLINDRICAL_SURFACE ( 'NONE', #151, 3.149999999999999900 ) ;
#32 = DIRECTION ( 'NONE',  ( -1.000000000000000000, -0.0000000000000000000, -0.0000000000000000000 ) ) ;
#33 = DIRECTION ( 'NONE',  ( -1.000000000000000000, -0.0000000000000000000, -0.0000000000000000000 ) ) ;
#34 = VERTEX_POINT ( 'NONE', #147 ) ;
#35 =( LENGTH_UNIT ( ) NAMED_UNIT ( * ) SI_UNIT ( .MILLI., .METRE. ) );
#36 = AXIS2_PLACEMENT_3D ( 'NONE', #131, #46, #184 ) ;
#37 =( LENGTH_UNIT ( ) NAMED_UNIT ( * ) SI_UNIT ( .MILLI., .METRE. ) );
#38 =( NAMED_UNIT ( * ) PLANE_ANGLE_UNIT ( ) SI_UNIT ( $, .RADIAN. ) );
#39 = ORIENTED_EDGE ( 'NONE', *, *, #178, .F. ) ;
#40 = VERTEX_POINT ( 'NONE', #12 ) ;
#41 = FACE_OUTER_BOUND ( 'NONE', #162, .T. ) ;
#42 = VERTEX_POINT ( 'NONE', #112 ) ;
#43 = CARTESIAN_POINT ( 'NONE',  ( 389.1145466373510000, 105.8764748864466600, 0.0000000000000000000 ) ) ;
#44 = CARTESIAN_POINT ( 'NONE',  ( 392.4585466373510500, 105.8764748864466600, 0.0000000000000000000 ) ) ;
#45 =( GEOMETRIC_REPRESENTATION_CONTEXT ( 3 ) GLOBAL_UNCERTAINTY_ASSIGNED_CONTEXT ( ( #68 ) ) GLOBAL_UNIT_ASSIGNED_CONTEXT ( ( #35, #28, #126 ) ) REPRESENTATION_CONTEXT ( 'NONE', 'WORKASPACE' ) );
#46 = DIRECTION ( 'NONE',  ( -1.000000000000000000, -0.0000000000000000000, -0.0000000000000000000 ) ) ;
#47 = ADVANCED_BREP_SHAPE_REPRESENTATION ( '100349', ( #85, #62 ), #45 ) ;
#48 = ORIENTED_EDGE ( 'NONE', *, *, #107, .T. ) ;
#49 = ADVANCED_FACE ( 'NONE', ( #57 ), #6, .T. ) ;
#50 = SPHERICAL_SURFACE ( 'NONE', #138, 4.593999999999998500 ) ;
#51 = COLOUR_RGB ( '',1.000000000000000000, 1.000000000000000000, 1.000000000000000000 ) ;
#52 = AXIS2_PLACEMENT_3D ( 'NONE', #22, #118, #182 ) ;
#53 = CARTESIAN_POINT ( 'NONE',  ( 390.0979085486019900, 105.8764748864466600, 0.0000000000000000000 ) ) ;
#54 = FILL_AREA_STYLE ('',( #150 ) ) ;
#55 = CIRCLE ( 'NONE', #128, 3.149999999999999900 ) ;
#56 = LINE ( 'NONE', #77, #120 ) ;
#57 = FACE_OUTER_BOUND ( 'NONE', #160, .T. ) ;
#58 = CARTESIAN_POINT ( 'NONE',  ( 390.9585466373510500, 105.8764748864466600, 0.0000000000000000000 ) ) ;
#59 = EDGE_CURVE ( 'NONE', #67, #42, #106, .T. ) ;
#60 = ADVANCED_FACE ( 'NONE', ( #148 ), #31, .T. ) ;
#61 = DIRECTION ( 'NONE',  ( 1.000000000000000000, 0.0000000000000000000, 0.0000000000000000000 ) ) ;
#62 = AXIS2_PLACEMENT_3D ( 'NONE', #142, #84, #61 ) ;
#63 = PLANE ( 'NONE',  #7 ) ;
#64 = ORIENTED_EDGE ( 'NONE', *, *, #3, .F. ) ;
#65 = DIRECTION ( 'NONE',  ( 0.0000000000000000000, 0.0000000000000000000, 1.000000000000000000 ) ) ;
#66 = AXIS2_PLACEMENT_3D ( 'NONE', #43, #166, #152 ) ;
#67 = VERTEX_POINT ( 'NONE', #103 ) ;
#68 = UNCERTAINTY_MEASURE_WITH_UNIT (LENGTH_MEASURE( 1.000000000000000100E-005 ), #35, 'distance_accuracy_value', 'NONE');
#69 = PRODUCT_DEFINITION_CONTEXT ( 'detailed design', #15, 'design' ) ;
#70 = CYLINDRICAL_SURFACE ( 'NONE', #181, 3.149999999999999900 ) ;
#71 = DIRECTION ( 'NONE',  ( 0.0000000000000000000, 1.000000000000000000, 0.0000000000000000000 ) ) ;
#72 =( NAMED_UNIT ( * ) SI_UNIT ( $, .STERADIAN. ) SOLID_ANGLE_UNIT ( ) );
#73 = ORIENTED_EDGE ( 'NONE', *, *, #88, .F. ) ;
#74 = SURFACE_SIDE_STYLE ('',( #136 ) ) ;
#75 = ORIENTED_EDGE ( 'NONE', *, *, #91, .T. ) ;
#76 = PRODUCT_DEFINITION ( 'Î´Öª', '', #92, #69 ) ;
#77 = CARTESIAN_POINT ( 'NONE',  ( 390.0979085486019900, 105.8764748864466600, 3.149999999999999900 ) ) ;
#78 = ORIENTED_EDGE ( 'NONE', *, *, #100, .T. ) ;
#79 =( GEOMETRIC_REPRESENTATION_CONTEXT ( 3 ) GLOBAL_UNCERTAINTY_ASSIGNED_CONTEXT ( ( #17 ) ) GLOBAL_UNIT_ASSIGNED_CONTEXT ( ( #37, #38, #18 ) ) REPRESENTATION_CONTEXT ( 'NONE', 'WORKASPACE' ) );
#80 = APPLICATION_CONTEXT ( 'automotive_design' ) ;
#81 = ORIENTED_EDGE ( 'NONE', *, *, #169, .F. ) ;
#82 = VECTOR ( 'NONE', #141, 1000.000000000000000 ) ;
#83 = PRODUCT_CONTEXT ( 'NONE', #80, 'mechanical' ) ;
#84 = DIRECTION ( 'NONE',  ( 0.0000000000000000000, 0.0000000000000000000, 1.000000000000000000 ) ) ;
#85 = MANIFOLD_SOLID_BREP ( 'Ðý×ª1', #122 ) ;
#86 = ADVANCED_FACE ( 'NONE', ( #133 ), #50, .T. ) ;
#87 = ORIENTED_EDGE ( 'NONE', *, *, #107, .F. ) ;
#88 = EDGE_CURVE ( 'NONE', #34, #167, #185, .T. ) ;
#89 = PRODUCT_RELATED_PRODUCT_CATEGORY ( 'part', '', ( #111 ) ) ;
#90 = DIRECTION ( 'NONE',  ( -1.000000000000000000, -0.0000000000000000000, -0.0000000000000000000 ) ) ;
#91 = EDGE_CURVE ( 'NONE', #167, #40, #140, .T. ) ;
#92 = PRODUCT_DEFINITION_FORMATION_WITH_SPECIFIED_SOURCE ( 'ÈÎºÎ', '', #111, .NOT_KNOWN. ) ;
#93 = APPLICATION_PROTOCOL_DEFINITION ( 'draft international standard', 'automotive_design', 1998, #80 ) ;
#94 = ORIENTED_EDGE ( 'NONE', *, *, #59, .F. ) ;
#95 = AXIS2_PLACEMENT_3D ( 'NONE', #58, #5, #109 ) ;
#96 = CIRCLE ( 'NONE', #36, 3.149999999999999900 ) ;
#97 =( LENGTH_UNIT ( ) NAMED_UNIT ( * ) SI_UNIT ( .MILLI., .METRE. ) );
#98 = ORIENTED_EDGE ( 'NONE', *, *, #3, .T. ) ;
#99 = ORIENTED_EDGE ( 'NONE', *, *, #30, .F. ) ;
#100 = EDGE_CURVE ( 'NONE', #40, #124, #96, .T. ) ;
#101 = DIRECTION ( 'NONE',  ( -0.0000000000000000000, 0.0000000000000000000, -1.000000000000000000 ) ) ;
#102 = CARTESIAN_POINT ( 'NONE',  ( 389.1145466373510000, 105.8764748864466600, 0.0000000000000000000 ) ) ;
#103 = CARTESIAN_POINT ( 'NONE',  ( 390.9585466373510500, 105.8764748864466600, -3.149999999999999900 ) ) ;
#104 = DIRECTION ( 'NONE',  ( 0.0000000000000000000, 0.0000000000000000000, 1.000000000000000000 ) ) ;
#105 = DIRECTION ( 'NONE',  ( 0.0000000000000000000, 0.0000000000000000000, 1.000000000000000000 ) ) ;
#106 = CIRCLE ( 'NONE', #52, 3.149999999999999900 ) ;
#107 = EDGE_CURVE ( 'NONE', #40, #42, #56, .T. ) ;
#108 = FILL_AREA_STYLE_COLOUR ( '', #51 ) ;
#109 = DIRECTION ( 'NONE',  ( 0.0000000000000000000, 0.0000000000000000000, 1.000000000000000000 ) ) ;
#110 = AXIS2_PLACEMENT_3D ( 'NONE', #121, #33, #134 ) ;
#111 = PRODUCT ( '100349', '100349', '', ( #83 ) ) ;
#112 = CARTESIAN_POINT ( 'NONE',  ( 390.9585466373510500, 105.8764748864466600, 3.149999999999999900 ) ) ;
#113 = CARTESIAN_POINT ( 'NONE',  ( 392.4585466373510500, 109.0264748864466500, 0.0000000000000000000 ) ) ;
#114 = ORIENTED_EDGE ( 'NONE', *, *, #91, .F. ) ;
#115 = CARTESIAN_POINT ( 'NONE',  ( 392.4585466373510500, 105.8764748864466600, 0.0000000000000000000 ) ) ;
#116 = CARTESIAN_POINT ( 'NONE',  ( 392.4585466373510500, 105.8764748864466600, -3.149999999999999900 ) ) ;
#117 = MECHANICAL_DESIGN_GEOMETRIC_PRESENTATION_REPRESENTATION (  '', ( #161 ), #146 ) ;
#118 = DIRECTION ( 'NONE',  ( -1.000000000000000000, -0.0000000000000000000, -0.0000000000000000000 ) ) ;
#119 = DIRECTION ( 'NONE',  ( -0.0000000000000000000, 0.0000000000000000000, -1.000000000000000000 ) ) ;
#120 = VECTOR ( 'NONE', #24, 1000.000000000000000 ) ;
#121 = CARTESIAN_POINT ( 'NONE',  ( 392.4585466373510500, 105.8764748864466600, 0.0000000000000000000 ) ) ;
#122 = CLOSED_SHELL ( 'NONE', ( #143, #49, #86, #60, #172 ) ) ;
#123 = DIRECTION ( 'NONE',  ( 1.000000000000000000, 0.0000000000000000000, 0.0000000000000000000 ) ) ;
#124 = VERTEX_POINT ( 'NONE', #113 ) ;
#125 = PRESENTATION_LAYER_ASSIGNMENT (  '', '', ( #161 ) ) ;
#126 =( NAMED_UNIT ( * ) SI_UNIT ( $, .STERADIAN. ) SOLID_ANGLE_UNIT ( ) );
#127 = ORIENTED_EDGE ( 'NONE', *, *, #88, .T. ) ;
#128 = AXIS2_PLACEMENT_3D ( 'NONE', #115, #32, #104 ) ;
#129 = PRESENTATION_STYLE_ASSIGNMENT (( #137 ) ) ;
#130 = CIRCLE ( 'NONE', #135, 4.593999999999987000 ) ;
#131 = CARTESIAN_POINT ( 'NONE',  ( 392.4585466373510500, 105.8764748864466600, 0.0000000000000000000 ) ) ;
#132 = AXIS2_PLACEMENT_3D ( 'NONE', #102, #119, #71 ) ;
#133 = FACE_OUTER_BOUND ( 'NONE', #145, .T. ) ;
#134 = DIRECTION ( 'NONE',  ( 0.0000000000000000000, 0.0000000000000000000, 1.000000000000000000 ) ) ;
#135 = AXIS2_PLACEMENT_3D ( 'NONE', #9, #170, #168 ) ;
#136 = SURFACE_STYLE_FILL_AREA ( #54 ) ;
#137 = SURFACE_STYLE_USAGE ( .BOTH. , #2 ) ;
#138 = AXIS2_PLACEMENT_3D ( 'NONE', #165, #101, #186 ) ;
#139 = CARTESIAN_POINT ( 'NONE',  ( 392.4585466373510500, 102.7264748864466800, -3.857637417314151800E-016 ) ) ;
#140 = CIRCLE ( 'NONE', #110, 3.149999999999999900 ) ;
#141 = DIRECTION ( 'NONE',  ( -1.000000000000000000, -0.0000000000000000000, -0.0000000000000000000 ) ) ;
#142 = CARTESIAN_POINT ( 'NONE',  ( 0.0000000000000000000, 0.0000000000000000000, 0.0000000000000000000 ) ) ;
#143 = ADVANCED_FACE ( 'NONE', ( #4 ), #70, .T. ) ;
#144 = CIRCLE ( 'NONE', #149, 3.149999999999999900 ) ;
#145 = EDGE_LOOP ( 'NONE', ( #73, #21, #20, #114 ) ) ;
#146 =( GEOMETRIC_REPRESENTATION_CONTEXT ( 3 ) GLOBAL_UNCERTAINTY_ASSIGNED_CONTEXT ( ( #157 ) ) GLOBAL_UNIT_ASSIGNED_CONTEXT ( ( #97, #10, #72 ) ) REPRESENTATION_CONTEXT ( 'NONE', 'WORKASPACE' ) );
#147 = CARTESIAN_POINT ( 'NONE',  ( 393.7085466373509900, 105.8764748864466600, 0.0000000000000000000 ) ) ;
#148 = FACE_OUTER_BOUND ( 'NONE', #155, .T. ) ;
#149 = AXIS2_PLACEMENT_3D ( 'NONE', #44, #153, #183 ) ;
#150 = FILL_AREA_STYLE_COLOUR ( '', #179 ) ;
#151 = AXIS2_PLACEMENT_3D ( 'NONE', #53, #90, #65 ) ;
#152 = DIRECTION ( 'NONE',  ( 0.0000000000000000000, 1.000000000000000000, 1.224646799147352500E-016 ) ) ;
#153 = DIRECTION ( 'NONE',  ( -1.000000000000000000, -0.0000000000000000000, -0.0000000000000000000 ) ) ;
#154 = ORIENTED_EDGE ( 'NONE', *, *, #178, .T. ) ;
#155 = EDGE_LOOP ( 'NONE', ( #81, #14, #75, #48, #94 ) ) ;
#156 = DIRECTION ( 'NONE',  ( 0.0000000000000000000, 0.0000000000000000000, -1.000000000000000000 ) ) ;
#157 = UNCERTAINTY_MEASURE_WITH_UNIT (LENGTH_MEASURE( 1.000000000000000100E-005 ), #97, 'distance_accuracy_value', 'NONE');
#158 = CIRCLE ( 'NONE', #95, 3.149999999999999900 ) ;
#159 = ORIENTED_EDGE ( 'NONE', *, *, #59, .T. ) ;
#160 = EDGE_LOOP ( 'NONE', ( #1, #127, #99, #64 ) ) ;
#161 = STYLED_ITEM ( 'NONE', ( #177 ), #85 ) ;
#162 = EDGE_LOOP ( 'NONE', ( #154, #159 ) ) ;
#163 = LINE ( 'NONE', #27, #82 ) ;
#164 = SURFACE_STYLE_FILL_AREA ( #174 ) ;
#165 = CARTESIAN_POINT ( 'NONE',  ( 389.1145466373510000, 105.8764748864466600, 0.0000000000000000000 ) ) ;
#166 = DIRECTION ( 'NONE',  ( 0.0000000000000000000, 1.224646799147353200E-016, -1.000000000000000000 ) ) ;
#167 = VERTEX_POINT ( 'NONE', #139 ) ;
#168 = DIRECTION ( 'NONE',  ( 1.000000000000000000, 0.0000000000000000000, 0.0000000000000000000 ) ) ;
#169 = EDGE_CURVE ( 'NONE', #29, #67, #163, .T. ) ;
#170 = DIRECTION ( 'NONE',  ( -0.0000000000000000000, 0.0000000000000000000, 1.000000000000000000 ) ) ;
#171 = CARTESIAN_POINT ( 'NONE',  ( 390.0979085486019900, 105.8764748864466600, 0.0000000000000000000 ) ) ;
#172 = ADVANCED_FACE ( 'NONE', ( #41 ), #63, .F. ) ;
#173 = STYLED_ITEM ( 'NONE', ( #129 ), #47 ) ;
#174 = FILL_AREA_STYLE ('',( #108 ) ) ;
#175 = CARTESIAN_POINT ( 'NONE',  ( 390.9585466373510500, 105.8764748864466600, 0.0000000000000000000 ) ) ;
#176 = SHAPE_DEFINITION_REPRESENTATION ( #26, #47 ) ;
#177 = PRESENTATION_STYLE_ASSIGNMENT (( #180 ) ) ;
#178 = EDGE_CURVE ( 'NONE', #42, #67, #158, .T. ) ;
#179 = COLOUR_RGB ( '',1.000000000000000000, 1.000000000000000000, 1.000000000000000000 ) ;
#180 = SURFACE_STYLE_USAGE ( .BOTH. , #74 ) ;
#181 = AXIS2_PLACEMENT_3D ( 'NONE', #171, #13, #105 ) ;
#182 = DIRECTION ( 'NONE',  ( 0.0000000000000000000, 0.0000000000000000000, 1.000000000000000000 ) ) ;
#183 = DIRECTION ( 'NONE',  ( 0.0000000000000000000, 0.0000000000000000000, 1.000000000000000000 ) ) ;
#184 = DIRECTION ( 'NONE',  ( 0.0000000000000000000, 0.0000000000000000000, 1.000000000000000000 ) ) ;
#185 = CIRCLE ( 'NONE', #66, 4.594000000000001200 ) ;
#186 = DIRECTION ( 'NONE',  ( 0.0000000000000000000, 1.000000000000000000, 0.0000000000000000000 ) ) ;
ENDSEC;
END-ISO-10303-21;
