ISO-10303-21;
HEADER;
FILE_DESCRIPTION (( 'STEP AP214' ),
    '1' );
FILE_NAME ('100356.STEP',
    '2019-06-03T06:44:26',
    ( '' ),
    ( '' ),
    'SwSTEP 2.0',
    'SolidWorks 2016',
    '' );
FILE_SCHEMA (( 'AUTOMOTIVE_DESIGN' ));
ENDSEC;

DATA;
#1 = AXIS2_PLACEMENT_3D ( 'NONE', #185, #50, #122 ) ;
#2 =( NAMED_UNIT ( * ) PLANE_ANGLE_UNIT ( ) SI_UNIT ( $, .RADIAN. ) );
#3 = TOROIDAL_SURFACE ( 'NONE', #116, 0.0001554200579014579300, 5.731211604095561200 ) ;
#4 = EDGE_CURVE ( 'NONE', #178, #68, #64, .T. ) ;
#5 = PRODUCT_DEFINITION_CONTEXT ( 'detailed design', #73, 'design' ) ;
#6 = COLOUR_RGB ( '',1.000000000000000000, 1.000000000000000000, 1.000000000000000000 ) ;
#7 = CIRCLE ( 'NONE', #60, 5.731211604095561200 ) ;
#8 = STYLED_ITEM ( 'NONE', ( #114 ), #147 ) ;
#9 = DIRECTION ( 'NONE',  ( 0.0001194425698409241800, -0.9999999928667362400, 0.0000000000000000000 ) ) ;
#10 = CARTESIAN_POINT ( 'NONE',  ( 27.19737795353039900, 13.06537937193134800, 0.0000000000000000000 ) ) ;
#11 = EDGE_LOOP ( 'NONE', ( #20, #92, #123 ) ) ;
#12 = PRODUCT ( '100356', '100356', '', ( #184 ) ) ;
#13 = CARTESIAN_POINT ( 'NONE',  ( 21.46616641098821200, 13.06453940123251000, 0.0000000000000000000 ) ) ;
#14 = DIRECTION ( 'NONE',  ( -0.0001194425698409241800, 0.9999999928667362400, 0.0000000000000000000 ) ) ;
#15 = ADVANCED_FACE ( 'NONE', ( #186 ), #76, .T. ) ;
#16 = ORIENTED_EDGE ( 'NONE', *, *, #161, .T. ) ;
#17 = PRESENTATION_STYLE_ASSIGNMENT (( #36 ) ) ;
#18 = EDGE_CURVE ( 'NONE', #70, #129, #7, .T. ) ;
#19 = EDGE_CURVE ( 'NONE', #129, #178, #154, .T. ) ;
#20 = ORIENTED_EDGE ( 'NONE', *, *, #161, .F. ) ;
#21 = EDGE_CURVE ( 'NONE', #98, #68, #99, .T. ) ;
#22 = SURFACE_STYLE_FILL_AREA ( #183 ) ;
#23 = FACE_OUTER_BOUND ( 'NONE', #11, .T. ) ;
#24 = CARTESIAN_POINT ( 'NONE',  ( 22.76797519080116300, 13.06485031267873300, 0.0000000000000000000 ) ) ;
#25 = ORIENTED_EDGE ( 'NONE', *, *, #19, .T. ) ;
#26 = DIRECTION ( 'NONE',  ( 0.0000000000000000000, 0.0000000000000000000, -1.000000000000000000 ) ) ;
#27 = STYLED_ITEM ( 'NONE', ( #17 ), #87 ) ;
#28 =( NAMED_UNIT ( * ) SI_UNIT ( $, .STERADIAN. ) SOLID_ANGLE_UNIT ( ) );
#29 = DIRECTION ( 'NONE',  ( -0.9999999928667362400, -0.0001194425698411438800, -0.0000000000000000000 ) ) ;
#30 = TOROIDAL_SURFACE ( 'NONE', #166, 0.0001554200579014579300, 5.731211604095561200 ) ;
#31 = ADVANCED_FACE ( 'NONE', ( #48 ), #39, .T. ) ;
#32 = CIRCLE ( 'NONE', #85, 4.999999964333685700 ) ;
#33 = AXIS2_PLACEMENT_3D ( 'NONE', #51, #137, #54 ) ;
#34 = ORIENTED_EDGE ( 'NONE', *, *, #101, .T. ) ;
#35 = ORIENTED_EDGE ( 'NONE', *, *, #4, .T. ) ;
#36 = SURFACE_STYLE_USAGE ( .BOTH. , #100 ) ;
#37 = PRESENTATION_LAYER_ASSIGNMENT (  '', '', ( #27 ) ) ;
#38 = SURFACE_STYLE_FILL_AREA ( #143 ) ;
#39 = CONICAL_SURFACE ( 'NONE', #47, 4.999820800478923700, 0.0001194425701257040200 ) ;
#40 = DIRECTION ( 'NONE',  ( 0.0000000000000000000, -1.000000000000000000, -1.224646790411624600E-016 ) ) ;
#41 = DIRECTION ( 'NONE',  ( 0.0001194425698409241800, -0.9999999928667362400, 0.0000000000000000000 ) ) ;
#42 = CARTESIAN_POINT ( 'NONE',  ( 22.76857240364610700, 8.064850384011366600, 6.123233952058127600E-016 ) ) ;
#43 = CARTESIAN_POINT ( 'NONE',  ( 0.0000000000000000000, 0.0000000000000000000, 0.0000000000000000000 ) ) ;
#44 = UNCERTAINTY_MEASURE_WITH_UNIT (LENGTH_MEASURE( 1.000000000000000100E-005 ), #77, 'distance_accuracy_value', 'NONE');
#45 = EDGE_CURVE ( 'NONE', #57, #129, #140, .T. ) ;
#46 = ORIENTED_EDGE ( 'NONE', *, *, #45, .F. ) ;
#47 = AXIS2_PLACEMENT_3D ( 'NONE', #95, #121, #170 ) ;
#48 = FACE_OUTER_BOUND ( 'NONE', #130, .T. ) ;
#49 = APPLICATION_PROTOCOL_DEFINITION ( 'draft international standard', 'automotive_design', 1998, #73 ) ;
#50 = DIRECTION ( 'NONE',  ( -0.9999999928667362400, -0.0001194425698411438800, -0.0000000000000000000 ) ) ;
#51 = CARTESIAN_POINT ( 'NONE',  ( 24.26797516940137100, 13.06502947653221700, 0.0000000000000000000 ) ) ;
#52 = ORIENTED_EDGE ( 'NONE', *, *, #148, .T. ) ;
#53 = CARTESIAN_POINT ( 'NONE',  ( 22.76797519080116300, 13.06485031267873300, 0.0000000000000000000 ) ) ;
#54 = DIRECTION ( 'NONE',  ( 0.0001194425698408390500, -0.9999999928667362400, 0.0000000000000000000 ) ) ;
#55 = MECHANICAL_DESIGN_GEOMETRIC_PRESENTATION_REPRESENTATION (  '', ( #27 ), #177 ) ;
#56 = DIRECTION ( 'NONE',  ( -0.9999999928667362400, -0.0001194425698411438800, -0.0000000000000000000 ) ) ;
#57 = VERTEX_POINT ( 'NONE', #110 ) ;
#58 = FACE_OUTER_BOUND ( 'NONE', #171, .T. ) ;
#59 = AXIS2_PLACEMENT_3D ( 'NONE', #43, #165, #133 ) ;
#60 = AXIS2_PLACEMENT_3D ( 'NONE', #172, #79, #40 ) ;
#61 =( GEOMETRIC_REPRESENTATION_CONTEXT ( 3 ) GLOBAL_UNCERTAINTY_ASSIGNED_CONTEXT ( ( #180 ) ) GLOBAL_UNIT_ASSIGNED_CONTEXT ( ( #66, #159, #111 ) ) REPRESENTATION_CONTEXT ( 'NONE', 'WORKASPACE' ) );
#62 = CIRCLE ( 'NONE', #156, 4.999820800478923700 ) ;
#63 = DIRECTION ( 'NONE',  ( -1.000000000000000000, 5.550301971496418600E-016, 1.462749608385707400E-020 ) ) ;
#64 = CIRCLE ( 'NONE', #120, 4.999999964333685700 ) ;
#65 = DIRECTION ( 'NONE',  ( -1.153726636796137400E-016, 1.000000000000000000, 0.0000000000000000000 ) ) ;
#66 =( LENGTH_UNIT ( ) NAMED_UNIT ( * ) SI_UNIT ( .MILLI., .METRE. ) );
#67 = DIRECTION ( 'NONE',  ( -1.000000000000000000, 0.0000000000000000000, 0.0000000000000000000 ) ) ;
#68 = VERTEX_POINT ( 'NONE', #108 ) ;
#69 = MECHANICAL_DESIGN_GEOMETRIC_PRESENTATION_REPRESENTATION (  '', ( #8 ), #81 ) ;
#70 = VERTEX_POINT ( 'NONE', #10 ) ;
#71 = EDGE_LOOP ( 'NONE', ( #189, #89, #46 ) ) ;
#72 = PRODUCT_DEFINITION ( 'Î´Öª', '', #163, #5 ) ;
#73 = APPLICATION_CONTEXT ( 'automotive_design' ) ;
#74 = EDGE_CURVE ( 'NONE', #68, #178, #32, .T. ) ;
#75 = CONICAL_SURFACE ( 'NONE', #94, 4.999999964333685700, 1.570676884224771600 ) ;
#76 = CONICAL_SURFACE ( 'NONE', #167, 4.999999964333685700, 1.570676884224771600 ) ;
#77 =( LENGTH_UNIT ( ) NAMED_UNIT ( * ) SI_UNIT ( .MILLI., .METRE. ) );
#78 = EDGE_LOOP ( 'NONE', ( #145, #16, #35 ) ) ;
#79 = DIRECTION ( 'NONE',  ( 1.462749608378910400E-020, -1.224646790411624600E-016, 1.000000000000000000 ) ) ;
#80 = DIRECTION ( 'NONE',  ( 0.0001194425698411438900, -0.9999999928667363500, 0.0000000000000000000 ) ) ;
#81 =( GEOMETRIC_REPRESENTATION_CONTEXT ( 3 ) GLOBAL_UNCERTAINTY_ASSIGNED_CONTEXT ( ( #118 ) ) GLOBAL_UNIT_ASSIGNED_CONTEXT ( ( #175, #2, #28 ) ) REPRESENTATION_CONTEXT ( 'NONE', 'WORKASPACE' ) );
#82 = DIRECTION ( 'NONE',  ( -0.9999999928667362400, -0.0001194425698411438800, -0.0000000000000000000 ) ) ;
#83 = ORIENTED_EDGE ( 'NONE', *, *, #18, .F. ) ;
#84 = ADVANCED_FACE ( 'NONE', ( #58 ), #181, .T. ) ;
#85 = AXIS2_PLACEMENT_3D ( 'NONE', #24, #91, #9 ) ;
#86 = CIRCLE ( 'NONE', #144, 5.731211604095562100 ) ;
#87 = ADVANCED_BREP_SHAPE_REPRESENTATION ( '100356', ( #147, #59 ), #61 ) ;
#88 = VECTOR ( 'NONE', #65, 1000.000000000000000 ) ;
#89 = ORIENTED_EDGE ( 'NONE', *, *, #18, .T. ) ;
#90 = APPLICATION_PROTOCOL_DEFINITION ( 'draft international standard', 'automotive_design', 1998, #131 ) ;
#91 = DIRECTION ( 'NONE',  ( -0.9999999928667362400, -0.0001194425698411438800, -0.0000000000000000000 ) ) ;
#92 = ORIENTED_EDGE ( 'NONE', *, *, #21, .T. ) ;
#93 = DIRECTION ( 'NONE',  ( -0.0001194425698409241800, 0.9999999928667362400, 0.0000000000000000000 ) ) ;
#94 = AXIS2_PLACEMENT_3D ( 'NONE', #126, #97, #14 ) ;
#95 = CARTESIAN_POINT ( 'NONE',  ( 24.26797516940137100, 13.06502947653221700, 0.0000000000000000000 ) ) ;
#96 = DIRECTION ( 'NONE',  ( 0.0001194425698411438900, -0.9999999928667363500, 0.0000000000000000000 ) ) ;
#97 = DIRECTION ( 'NONE',  ( 0.9999999928667362400, 0.0001194425698411438800, 0.0000000000000000000 ) ) ;
#98 = VERTEX_POINT ( 'NONE', #106 ) ;
#99 = LINE ( 'NONE', #42, #182 ) ;
#100 = SURFACE_SIDE_STYLE ('',( #22 ) ) ;
#101 = EDGE_CURVE ( 'NONE', #57, #68, #115, .T. ) ;
#102 = ORIENTED_EDGE ( 'NONE', *, *, #101, .F. ) ;
#103 =( NAMED_UNIT ( * ) PLANE_ANGLE_UNIT ( ) SI_UNIT ( $, .RADIAN. ) );
#104 = PRODUCT_DEFINITION_SHAPE ( 'NONE', 'NONE',  #72 ) ;
#105 = ORIENTED_EDGE ( 'NONE', *, *, #4, .F. ) ;
#106 = CARTESIAN_POINT ( 'NONE',  ( 22.76737797795621900, 13.06485024134609700, 0.0000000000000000000 ) ) ;
#107 = EDGE_CURVE ( 'NONE', #129, #57, #62, .T. ) ;
#108 = CARTESIAN_POINT ( 'NONE',  ( 22.76857240364610700, 8.064850384011366600, 0.0000000000000000000 ) ) ;
#109 = ORIENTED_EDGE ( 'NONE', *, *, #107, .F. ) ;
#110 = CARTESIAN_POINT ( 'NONE',  ( 24.26857236084652700, 8.065208711718332400, 0.0000000000000000000 ) ) ;
#111 =( NAMED_UNIT ( * ) SI_UNIT ( $, .STERADIAN. ) SOLID_ANGLE_UNIT ( ) );
#112 = ADVANCED_FACE ( 'NONE', ( #153 ), #3, .T. ) ;
#113 = CARTESIAN_POINT ( 'NONE',  ( 24.26737797795621900, 18.06485024134610000, 6.123014539616870200E-016 ) ) ;
#114 = PRESENTATION_STYLE_ASSIGNMENT (( #128 ) ) ;
#115 = LINE ( 'NONE', #138, #149 ) ;
#116 = AXIS2_PLACEMENT_3D ( 'NONE', #139, #56, #96 ) ;
#117 = VECTOR ( 'NONE', #63, 1000.000000000000000 ) ;
#118 = UNCERTAINTY_MEASURE_WITH_UNIT (LENGTH_MEASURE( 1.000000000000000100E-005 ), #175, 'distance_accuracy_value', 'NONE');
#119 = ORIENTED_EDGE ( 'NONE', *, *, #19, .F. ) ;
#120 = AXIS2_PLACEMENT_3D ( 'NONE', #188, #187, #41 ) ;
#121 = DIRECTION ( 'NONE',  ( -0.9999999928667362400, -0.0001194425698411438800, -0.0000000000000000000 ) ) ;
#122 = DIRECTION ( 'NONE',  ( 0.0001194425698408390500, -0.9999999928667362400, 0.0000000000000000000 ) ) ;
#123 = ORIENTED_EDGE ( 'NONE', *, *, #74, .T. ) ;
#124 = CARTESIAN_POINT ( 'NONE',  ( 24.26737797795621900, 18.06485024134610000, 6.123014539616870200E-016 ) ) ;
#125 = SURFACE_SIDE_STYLE ('',( #38 ) ) ;
#126 = CARTESIAN_POINT ( 'NONE',  ( 22.76797519080116300, 13.06485031267873300, 0.0000000000000000000 ) ) ;
#127 = ADVANCED_FACE ( 'NONE', ( #23 ), #75, .T. ) ;
#128 = SURFACE_STYLE_USAGE ( .BOTH. , #125 ) ;
#129 = VERTEX_POINT ( 'NONE', #113 ) ;
#130 = EDGE_LOOP ( 'NONE', ( #151, #25, #179, #102 ) ) ;
#131 = APPLICATION_CONTEXT ( 'automotive_design' ) ;
#132 = CLOSED_SHELL ( 'NONE', ( #127, #31, #146, #112, #84, #15 ) ) ;
#133 = DIRECTION ( 'NONE',  ( 1.000000000000000000, 0.0000000000000000000, 0.0000000000000000000 ) ) ;
#134 =( NAMED_UNIT ( * ) SI_UNIT ( $, .STERADIAN. ) SOLID_ANGLE_UNIT ( ) );
#135 = PRODUCT_RELATED_PRODUCT_CATEGORY ( 'part', '', ( #12 ) ) ;
#136 = DIRECTION ( 'NONE',  ( 0.9999999928667362400, 0.0001194425698411438800, 0.0000000000000000000 ) ) ;
#137 = DIRECTION ( 'NONE',  ( -0.9999999928667362400, -0.0001194425698411438800, -0.0000000000000000000 ) ) ;
#138 = CARTESIAN_POINT ( 'NONE',  ( 24.26857236084652700, 8.065208711718334200, 0.0000000000000000000 ) ) ;
#139 = CARTESIAN_POINT ( 'NONE',  ( 21.46616639242443700, 13.06469482128930400, 0.0000000000000000000 ) ) ;
#140 = CIRCLE ( 'NONE', #1, 4.999820800478923700 ) ;
#141 = CARTESIAN_POINT ( 'NONE',  ( 22.76737797795621900, 18.06485024134610000, 6.123233952058127600E-016 ) ) ;
#142 = DIRECTION ( 'NONE',  ( -0.9999999714669449700, -0.0002388851379788120700, 0.0000000000000000000 ) ) ;
#143 = FILL_AREA_STYLE ('',( #173 ) ) ;
#144 = AXIS2_PLACEMENT_3D ( 'NONE', #13, #26, #67 ) ;
#145 = ORIENTED_EDGE ( 'NONE', *, *, #21, .F. ) ;
#146 = ADVANCED_FACE ( 'NONE', ( #150 ), #30, .T. ) ;
#147 = MANIFOLD_SOLID_BREP ( 'Ðý×ª1', #132 ) ;
#148 = EDGE_CURVE ( 'NONE', #70, #57, #86, .T. ) ;
#149 = VECTOR ( 'NONE', #142, 1000.000000000000200 ) ;
#150 = FACE_OUTER_BOUND ( 'NONE', #71, .T. ) ;
#151 = ORIENTED_EDGE ( 'NONE', *, *, #45, .T. ) ;
#152 = LINE ( 'NONE', #160, #88 ) ;
#153 = FACE_OUTER_BOUND ( 'NONE', #164, .T. ) ;
#154 = LINE ( 'NONE', #124, #117 ) ;
#155 = DIRECTION ( 'NONE',  ( 0.0002388851379781416500, -0.9999999714669449700, 1.224646790411624600E-016 ) ) ;
#156 = AXIS2_PLACEMENT_3D ( 'NONE', #190, #29, #158 ) ;
#157 = PRESENTATION_LAYER_ASSIGNMENT (  '', '', ( #8 ) ) ;
#158 = DIRECTION ( 'NONE',  ( 0.0001194425698408390500, -0.9999999928667362400, 0.0000000000000000000 ) ) ;
#159 =( NAMED_UNIT ( * ) PLANE_ANGLE_UNIT ( ) SI_UNIT ( $, .RADIAN. ) );
#160 = CARTESIAN_POINT ( 'NONE',  ( 22.76737797795621900, 18.06485024134610000, 0.0000000000000000000 ) ) ;
#161 = EDGE_CURVE ( 'NONE', #98, #178, #152, .T. ) ;
#162 = SHAPE_DEFINITION_REPRESENTATION ( #104, #87 ) ;
#163 = PRODUCT_DEFINITION_FORMATION_WITH_SPECIFIED_SOURCE ( 'ÈÎºÎ', '', #12, .NOT_KNOWN. ) ;
#164 = EDGE_LOOP ( 'NONE', ( #83, #52, #109 ) ) ;
#165 = DIRECTION ( 'NONE',  ( 0.0000000000000000000, 0.0000000000000000000, 1.000000000000000000 ) ) ;
#166 = AXIS2_PLACEMENT_3D ( 'NONE', #176, #82, #80 ) ;
#167 = AXIS2_PLACEMENT_3D ( 'NONE', #53, #136, #93 ) ;
#168 = FILL_AREA_STYLE_COLOUR ( '', #6 ) ;
#169 = COLOUR_RGB ( '',1.000000000000000000, 1.000000000000000000, 1.000000000000000000 ) ;
#170 = DIRECTION ( 'NONE',  ( 0.0001194425698408390500, -0.9999999928667362400, 0.0000000000000000000 ) ) ;
#171 = EDGE_LOOP ( 'NONE', ( #119, #174, #34, #105 ) ) ;
#172 = CARTESIAN_POINT ( 'NONE',  ( 21.46616637386066600, 13.06485024134609700, 1.903346764323167700E-020 ) ) ;
#173 = FILL_AREA_STYLE_COLOUR ( '', #169 ) ;
#174 = ORIENTED_EDGE ( 'NONE', *, *, #107, .T. ) ;
#175 =( LENGTH_UNIT ( ) NAMED_UNIT ( * ) SI_UNIT ( .MILLI., .METRE. ) );
#176 = CARTESIAN_POINT ( 'NONE',  ( 21.46616639242443700, 13.06469482128930400, 0.0000000000000000000 ) ) ;
#177 =( GEOMETRIC_REPRESENTATION_CONTEXT ( 3 ) GLOBAL_UNCERTAINTY_ASSIGNED_CONTEXT ( ( #44 ) ) GLOBAL_UNIT_ASSIGNED_CONTEXT ( ( #77, #103, #134 ) ) REPRESENTATION_CONTEXT ( 'NONE', 'WORKASPACE' ) );
#178 = VERTEX_POINT ( 'NONE', #141 ) ;
#179 = ORIENTED_EDGE ( 'NONE', *, *, #74, .F. ) ;
#180 = UNCERTAINTY_MEASURE_WITH_UNIT (LENGTH_MEASURE( 1.000000000000000100E-005 ), #66, 'distance_accuracy_value', 'NONE');
#181 = CONICAL_SURFACE ( 'NONE', #33, 4.999820800478923700, 0.0001194425701257040200 ) ;
#182 = VECTOR ( 'NONE', #155, 1000.000000000000200 ) ;
#183 = FILL_AREA_STYLE ('',( #168 ) ) ;
#184 = PRODUCT_CONTEXT ( 'NONE', #131, 'mechanical' ) ;
#185 = CARTESIAN_POINT ( 'NONE',  ( 24.26797516940137100, 13.06502947653221700, 0.0000000000000000000 ) ) ;
#186 = FACE_OUTER_BOUND ( 'NONE', #78, .T. ) ;
#187 = DIRECTION ( 'NONE',  ( -0.9999999928667362400, -0.0001194425698411438800, -0.0000000000000000000 ) ) ;
#188 = CARTESIAN_POINT ( 'NONE',  ( 22.76797519080116300, 13.06485031267873300, 0.0000000000000000000 ) ) ;
#189 = ORIENTED_EDGE ( 'NONE', *, *, #148, .F. ) ;
#190 = CARTESIAN_POINT ( 'NONE',  ( 24.26797516940137100, 13.06502947653221700, 0.0000000000000000000 ) ) ;
ENDSEC;
END-ISO-10303-21;
