ISO-10303-21;
HEADER;
FILE_DESCRIPTION (( 'STEP AP214' ),
    '1' );
FILE_NAME ('100362.STEP',
    '2019-06-04T02:01:53',
    ( '' ),
    ( '' ),
    'SwSTEP 2.0',
    'SolidWorks 2016',
    '' );
FILE_SCHEMA (( 'AUTOMOTIVE_DESIGN' ));
ENDSEC;

DATA;
#1 = VERTEX_POINT ( 'NONE', #65 ) ;
#2 = UNCERTAINTY_MEASURE_WITH_UNIT (LENGTH_MEASURE( 1.000000000000000100E-005 ), #70, 'distance_accuracy_value', 'NONE');
#3 = ORIENTED_EDGE ( 'NONE', *, *, #109, .T. ) ;
#4 = MECHANICAL_DESIGN_GEOMETRIC_PRESENTATION_REPRESENTATION (  '', ( #78 ), #110 ) ;
#5 = DIRECTION ( 'NONE',  ( -0.0000000000000000000, 0.0000000000000000000, -1.000000000000000000 ) ) ;
#6 = FACE_OUTER_BOUND ( 'NONE', #31, .T. ) ;
#7 = DIRECTION ( 'NONE',  ( 0.0000000000000000000, 1.000000000000000000, 1.224646799147353000E-016 ) ) ;
#8 = CARTESIAN_POINT ( 'NONE',  ( 436.9655568199800100, 69.00264869196615800, 0.0000000000000000000 ) ) ;
#9 = CARTESIAN_POINT ( 'NONE',  ( 434.9655568199800100, 64.00264869196615800, -5.000000000000004400 ) ) ;
#10 =( NAMED_UNIT ( * ) SI_UNIT ( $, .STERADIAN. ) SOLID_ANGLE_UNIT ( ) );
#11 = APPLICATION_PROTOCOL_DEFINITION ( 'draft international standard', 'automotive_design', 1998, #165 ) ;
#12 = DIRECTION ( 'NONE',  ( 0.0000000000000000000, 0.0000000000000000000, 1.000000000000000000 ) ) ;
#13 = ADVANCED_FACE ( 'NONE', ( #32 ), #146, .F. ) ;
#14 = MECHANICAL_DESIGN_GEOMETRIC_PRESENTATION_REPRESENTATION (  '', ( #96 ), #91 ) ;
#15 = EDGE_CURVE ( 'NONE', #42, #177, #104, .T. ) ;
#16 = SURFACE_STYLE_FILL_AREA ( #28 ) ;
#17 = DIRECTION ( 'NONE',  ( 0.0000000000000000000, 1.224646799147353200E-016, -1.000000000000000000 ) ) ;
#18 = LINE ( 'NONE', #122, #46 ) ;
#19 = CARTESIAN_POINT ( 'NONE',  ( 436.9655568199800100, 64.00264869196615800, -5.000000000000004400 ) ) ;
#20 = CARTESIAN_POINT ( 'NONE',  ( 434.9655568199800100, 64.00264869196615800, 0.0000000000000000000 ) ) ;
#21 = APPLICATION_CONTEXT ( 'automotive_design' ) ;
#22 = CARTESIAN_POINT ( 'NONE',  ( 436.9655568199800100, 64.00264869196615800, 0.0000000000000000000 ) ) ;
#23 = SHAPE_DEFINITION_REPRESENTATION ( #161, #134 ) ;
#24 = CARTESIAN_POINT ( 'NONE',  ( 433.8233271275355500, 64.00264869196615800, 0.0000000000000000000 ) ) ;
#25 = AXIS2_PLACEMENT_3D ( 'NONE', #20, #66, #157 ) ;
#26 = DIRECTION ( 'NONE',  ( -1.000000000000000000, -0.0000000000000000000, -0.0000000000000000000 ) ) ;
#27 = CARTESIAN_POINT ( 'NONE',  ( 436.9655568199800100, 64.00264869196615800, 0.0000000000000000000 ) ) ;
#28 = FILL_AREA_STYLE ('',( #184 ) ) ;
#29 = ORIENTED_EDGE ( 'NONE', *, *, #124, .T. ) ;
#30 = EDGE_CURVE ( 'NONE', #172, #52, #93, .T. ) ;
#31 = EDGE_LOOP ( 'NONE', ( #183, #77, #119, #135 ) ) ;
#32 = FACE_OUTER_BOUND ( 'NONE', #76, .T. ) ;
#33 = CIRCLE ( 'NONE', #139, 22.60142857142854900 ) ;
#34 = AXIS2_PLACEMENT_3D ( 'NONE', #159, #17, #7 ) ;
#35 = DIRECTION ( 'NONE',  ( -1.000000000000000000, -0.0000000000000000000, -0.0000000000000000000 ) ) ;
#36 = EDGE_CURVE ( 'NONE', #52, #89, #18, .T. ) ;
#37 = ORIENTED_EDGE ( 'NONE', *, *, #36, .F. ) ;
#38 = APPLICATION_PROTOCOL_DEFINITION ( 'draft international standard', 'automotive_design', 1998, #21 ) ;
#39 = DIRECTION ( 'NONE',  ( 0.0000000000000000000, 0.0000000000000000000, 1.000000000000000000 ) ) ;
#40 = CARTESIAN_POINT ( 'NONE',  ( 433.8233271275355500, 64.00264869196615800, 5.000000000000004400 ) ) ;
#41 = DIRECTION ( 'NONE',  ( 1.000000000000000000, 0.0000000000000000000, 0.0000000000000000000 ) ) ;
#42 = VERTEX_POINT ( 'NONE', #176 ) ;
#43 = SURFACE_STYLE_USAGE ( .BOTH. , #182 ) ;
#44 = DIRECTION ( 'NONE',  ( -1.000000000000000000, -0.0000000000000000000, -0.0000000000000000000 ) ) ;
#45 = PRODUCT_DEFINITION_CONTEXT ( 'detailed design', #21, 'design' ) ;
#46 = VECTOR ( 'NONE', #80, 1000.000000000000000 ) ;
#47 = ADVANCED_FACE ( 'NONE', ( #144 ), #59, .T. ) ;
#48 = EDGE_LOOP ( 'NONE', ( #174, #61, #62, #175, #79 ) ) ;
#49 = PRESENTATION_STYLE_ASSIGNMENT (( #55 ) ) ;
#50 = UNCERTAINTY_MEASURE_WITH_UNIT (LENGTH_MEASURE( 1.000000000000000100E-005 ), #129, 'distance_accuracy_value', 'NONE');
#51 = DIRECTION ( 'NONE',  ( 0.0000000000000000000, 0.0000000000000000000, 1.000000000000000000 ) ) ;
#52 = VERTEX_POINT ( 'NONE', #19 ) ;
#53 = DIRECTION ( 'NONE',  ( -0.0000000000000000000, 0.0000000000000000000, -1.000000000000000000 ) ) ;
#54 = CYLINDRICAL_SURFACE ( 'NONE', #121, 5.000000000000004400 ) ;
#55 = SURFACE_STYLE_USAGE ( .BOTH. , #100 ) ;
#56 = DIRECTION ( 'NONE',  ( 0.0000000000000000000, 0.0000000000000000000, 1.000000000000000000 ) ) ;
#57 = CARTESIAN_POINT ( 'NONE',  ( 434.9655568199800100, 64.00264869196615800, 0.0000000000000000000 ) ) ;
#58 =( LENGTH_UNIT ( ) NAMED_UNIT ( * ) SI_UNIT ( .MILLI., .METRE. ) );
#59 = SPHERICAL_SURFACE ( 'NONE', #145, 22.60142857142855600 ) ;
#60 = COLOUR_RGB ( '',1.000000000000000000, 1.000000000000000000, 1.000000000000000000 ) ;
#61 = ORIENTED_EDGE ( 'NONE', *, *, #36, .T. ) ;
#62 = ORIENTED_EDGE ( 'NONE', *, *, #173, .F. ) ;
#63 = ORIENTED_EDGE ( 'NONE', *, *, #118, .T. ) ;
#64 = AXIS2_PLACEMENT_3D ( 'NONE', #114, #158, #164 ) ;
#65 = CARTESIAN_POINT ( 'NONE',  ( 436.9655568199800100, 64.00264869196615800, 5.000000000000004400 ) ) ;
#66 = DIRECTION ( 'NONE',  ( 1.000000000000000000, 0.0000000000000000000, 0.0000000000000000000 ) ) ;
#67 =( NAMED_UNIT ( * ) SI_UNIT ( $, .STERADIAN. ) SOLID_ANGLE_UNIT ( ) );
#68 = AXIS2_PLACEMENT_3D ( 'NONE', #149, #26, #88 ) ;
#69 = CARTESIAN_POINT ( 'NONE',  ( 414.9241282485514800, 64.00264869196610100, 0.0000000000000000000 ) ) ;
#70 =( LENGTH_UNIT ( ) NAMED_UNIT ( * ) SI_UNIT ( .MILLI., .METRE. ) );
#71 = DIRECTION ( 'NONE',  ( -1.000000000000000000, -0.0000000000000000000, -0.0000000000000000000 ) ) ;
#72 = DIRECTION ( 'NONE',  ( -1.000000000000000000, -0.0000000000000000000, -0.0000000000000000000 ) ) ;
#73 = ADVANCED_FACE ( 'NONE', ( #6 ), #131, .T. ) ;
#74 = EDGE_CURVE ( 'NONE', #1, #172, #185, .T. ) ;
#75 = AXIS2_PLACEMENT_3D ( 'NONE', #57, #126, #56 ) ;
#76 = EDGE_LOOP ( 'NONE', ( #168, #117 ) ) ;
#77 = ORIENTED_EDGE ( 'NONE', *, *, #15, .T. ) ;
#78 = STYLED_ITEM ( 'NONE', ( #49 ), #134 ) ;
#79 = ORIENTED_EDGE ( 'NONE', *, *, #74, .T. ) ;
#80 = DIRECTION ( 'NONE',  ( -1.000000000000000000, -0.0000000000000000000, -0.0000000000000000000 ) ) ;
#81 = ORIENTED_EDGE ( 'NONE', *, *, #15, .F. ) ;
#82 = PRODUCT_DEFINITION_FORMATION_WITH_SPECIFIED_SOURCE ( 'ÈÎºÎ', '', #90, .NOT_KNOWN. ) ;
#83 = CARTESIAN_POINT ( 'NONE',  ( 434.9655568199800100, 64.00264869196615800, 5.000000000000004400 ) ) ;
#84 = EDGE_CURVE ( 'NONE', #1, #151, #130, .T. ) ;
#85 =( NAMED_UNIT ( * ) PLANE_ANGLE_UNIT ( ) SI_UNIT ( $, .RADIAN. ) );
#86 = CARTESIAN_POINT ( 'NONE',  ( 436.9655568199800100, 64.00264869196615800, 0.0000000000000000000 ) ) ;
#87 = AXIS2_PLACEMENT_3D ( 'NONE', #112, #53, #163 ) ;
#88 = DIRECTION ( 'NONE',  ( 0.0000000000000000000, 0.0000000000000000000, 1.000000000000000000 ) ) ;
#89 = VERTEX_POINT ( 'NONE', #9 ) ;
#90 = PRODUCT ( '100362', '100362', '', ( #152 ) ) ;
#91 =( GEOMETRIC_REPRESENTATION_CONTEXT ( 3 ) GLOBAL_UNCERTAINTY_ASSIGNED_CONTEXT ( ( #106 ) ) GLOBAL_UNIT_ASSIGNED_CONTEXT ( ( #58, #85, #10 ) ) REPRESENTATION_CONTEXT ( 'NONE', 'WORKASPACE' ) );
#92 = SURFACE_STYLE_FILL_AREA ( #128 ) ;
#93 = CIRCLE ( 'NONE', #155, 5.000000000000004400 ) ;
#94 = EDGE_CURVE ( 'NONE', #89, #151, #97, .T. ) ;
#95 = CIRCLE ( 'NONE', #148, 5.000000000000004400 ) ;
#96 = STYLED_ITEM ( 'NONE', ( #132 ), #166 ) ;
#97 = CIRCLE ( 'NONE', #75, 5.000000000000004400 ) ;
#98 = PRODUCT_RELATED_PRODUCT_CATEGORY ( 'part', '', ( #90 ) ) ;
#99 = CYLINDRICAL_SURFACE ( 'NONE', #68, 5.000000000000004400 ) ;
#100 = SURFACE_SIDE_STYLE ('',( #16 ) ) ;
#101 = PRESENTATION_LAYER_ASSIGNMENT (  '', '', ( #78 ) ) ;
#102 = DIRECTION ( 'NONE',  ( 0.0000000000000000000, 0.0000000000000000000, 1.000000000000000000 ) ) ;
#103 = CARTESIAN_POINT ( 'NONE',  ( 436.9655568199800100, 64.00264869196615800, 0.0000000000000000000 ) ) ;
#104 = CIRCLE ( 'NONE', #34, 22.60142857142856300 ) ;
#105 = CLOSED_SHELL ( 'NONE', ( #170, #73, #47, #186, #13 ) ) ;
#106 = UNCERTAINTY_MEASURE_WITH_UNIT (LENGTH_MEASURE( 1.000000000000000100E-005 ), #58, 'distance_accuracy_value', 'NONE');
#107 = ORIENTED_EDGE ( 'NONE', *, *, #84, .T. ) ;
#108 = PRODUCT_DEFINITION ( 'Î´Öª', '', #82, #45 ) ;
#109 = EDGE_CURVE ( 'NONE', #42, #172, #33, .T. ) ;
#110 =( GEOMETRIC_REPRESENTATION_CONTEXT ( 3 ) GLOBAL_UNCERTAINTY_ASSIGNED_CONTEXT ( ( #50 ) ) GLOBAL_UNIT_ASSIGNED_CONTEXT ( ( #129, #147, #67 ) ) REPRESENTATION_CONTEXT ( 'NONE', 'WORKASPACE' ) );
#111 = CARTESIAN_POINT ( 'NONE',  ( 414.9241282485514800, 64.00264869196610100, 0.0000000000000000000 ) ) ;
#112 = CARTESIAN_POINT ( 'NONE',  ( 414.9241282485514800, 64.00264869196610100, 0.0000000000000000000 ) ) ;
#113 = VECTOR ( 'NONE', #71, 1000.000000000000000 ) ;
#114 = CARTESIAN_POINT ( 'NONE',  ( 0.0000000000000000000, 0.0000000000000000000, 0.0000000000000000000 ) ) ;
#115 = CARTESIAN_POINT ( 'NONE',  ( 436.9655568199800100, 59.00264869196610800, -6.123233995736768300E-016 ) ) ;
#116 = PRESENTATION_LAYER_ASSIGNMENT (  '', '', ( #96 ) ) ;
#117 = ORIENTED_EDGE ( 'NONE', *, *, #94, .T. ) ;
#118 = EDGE_CURVE ( 'NONE', #52, #177, #156, .T. ) ;
#119 = ORIENTED_EDGE ( 'NONE', *, *, #118, .F. ) ;
#120 = EDGE_LOOP ( 'NONE', ( #37, #63, #29, #107, #169 ) ) ;
#121 = AXIS2_PLACEMENT_3D ( 'NONE', #24, #127, #39 ) ;
#122 = CARTESIAN_POINT ( 'NONE',  ( 433.8233271275355500, 64.00264869196615800, -5.000000000000004400 ) ) ;
#123 = FACE_OUTER_BOUND ( 'NONE', #120, .T. ) ;
#124 = EDGE_CURVE ( 'NONE', #177, #1, #142, .T. ) ;
#125 = DIRECTION ( 'NONE',  ( 0.0000000000000000000, 0.0000000000000000000, 1.000000000000000000 ) ) ;
#126 = DIRECTION ( 'NONE',  ( -1.000000000000000000, -0.0000000000000000000, -0.0000000000000000000 ) ) ;
#127 = DIRECTION ( 'NONE',  ( -1.000000000000000000, -0.0000000000000000000, -0.0000000000000000000 ) ) ;
#128 = FILL_AREA_STYLE ('',( #140 ) ) ;
#129 =( LENGTH_UNIT ( ) NAMED_UNIT ( * ) SI_UNIT ( .MILLI., .METRE. ) );
#130 = LINE ( 'NONE', #40, #113 ) ;
#131 = SPHERICAL_SURFACE ( 'NONE', #87, 22.60142857142855600 ) ;
#132 = PRESENTATION_STYLE_ASSIGNMENT (( #43 ) ) ;
#133 = AXIS2_PLACEMENT_3D ( 'NONE', #86, #181, #102 ) ;
#134 = ADVANCED_BREP_SHAPE_REPRESENTATION ( '100362', ( #166, #64 ), #180 ) ;
#135 = ORIENTED_EDGE ( 'NONE', *, *, #30, .F. ) ;
#136 = DIRECTION ( 'NONE',  ( 0.0000000000000000000, 1.000000000000000000, 0.0000000000000000000 ) ) ;
#137 = ORIENTED_EDGE ( 'NONE', *, *, #74, .F. ) ;
#138 =( NAMED_UNIT ( * ) PLANE_ANGLE_UNIT ( ) SI_UNIT ( $, .RADIAN. ) );
#139 = AXIS2_PLACEMENT_3D ( 'NONE', #69, #150, #41 ) ;
#140 = FILL_AREA_STYLE_COLOUR ( '', #162 ) ;
#141 = EDGE_LOOP ( 'NONE', ( #81, #3, #137, #143 ) ) ;
#142 = CIRCLE ( 'NONE', #154, 5.000000000000004400 ) ;
#143 = ORIENTED_EDGE ( 'NONE', *, *, #124, .F. ) ;
#144 = FACE_OUTER_BOUND ( 'NONE', #141, .T. ) ;
#145 = AXIS2_PLACEMENT_3D ( 'NONE', #111, #5, #136 ) ;
#146 = PLANE ( 'NONE',  #25 ) ;
#147 =( NAMED_UNIT ( * ) PLANE_ANGLE_UNIT ( ) SI_UNIT ( $, .RADIAN. ) );
#148 = AXIS2_PLACEMENT_3D ( 'NONE', #179, #72, #12 ) ;
#149 = CARTESIAN_POINT ( 'NONE',  ( 433.8233271275355500, 64.00264869196615800, 0.0000000000000000000 ) ) ;
#150 = DIRECTION ( 'NONE',  ( -0.0000000000000000000, 0.0000000000000000000, 1.000000000000000000 ) ) ;
#151 = VERTEX_POINT ( 'NONE', #83 ) ;
#152 = PRODUCT_CONTEXT ( 'NONE', #165, 'mechanical' ) ;
#153 = FACE_OUTER_BOUND ( 'NONE', #48, .T. ) ;
#154 = AXIS2_PLACEMENT_3D ( 'NONE', #27, #44, #167 ) ;
#155 = AXIS2_PLACEMENT_3D ( 'NONE', #22, #35, #51 ) ;
#156 = CIRCLE ( 'NONE', #171, 5.000000000000004400 ) ;
#157 = DIRECTION ( 'NONE',  ( 0.0000000000000000000, 0.0000000000000000000, -1.000000000000000000 ) ) ;
#158 = DIRECTION ( 'NONE',  ( 0.0000000000000000000, 0.0000000000000000000, 1.000000000000000000 ) ) ;
#159 = CARTESIAN_POINT ( 'NONE',  ( 414.9241282485514800, 64.00264869196610100, 0.0000000000000000000 ) ) ;
#160 = DIRECTION ( 'NONE',  ( -1.000000000000000000, -0.0000000000000000000, -0.0000000000000000000 ) ) ;
#161 = PRODUCT_DEFINITION_SHAPE ( 'NONE', 'NONE',  #108 ) ;
#162 = COLOUR_RGB ( '',1.000000000000000000, 1.000000000000000000, 1.000000000000000000 ) ;
#163 = DIRECTION ( 'NONE',  ( 0.0000000000000000000, 1.000000000000000000, 0.0000000000000000000 ) ) ;
#164 = DIRECTION ( 'NONE',  ( 1.000000000000000000, 0.0000000000000000000, 0.0000000000000000000 ) ) ;
#165 = APPLICATION_CONTEXT ( 'automotive_design' ) ;
#166 = MANIFOLD_SOLID_BREP ( 'Ðý×ª1', #105 ) ;
#167 = DIRECTION ( 'NONE',  ( 0.0000000000000000000, 0.0000000000000000000, 1.000000000000000000 ) ) ;
#168 = ORIENTED_EDGE ( 'NONE', *, *, #173, .T. ) ;
#169 = ORIENTED_EDGE ( 'NONE', *, *, #94, .F. ) ;
#170 = ADVANCED_FACE ( 'NONE', ( #153 ), #99, .T. ) ;
#171 = AXIS2_PLACEMENT_3D ( 'NONE', #103, #160, #125 ) ;
#172 = VERTEX_POINT ( 'NONE', #8 ) ;
#173 = EDGE_CURVE ( 'NONE', #151, #89, #95, .T. ) ;
#174 = ORIENTED_EDGE ( 'NONE', *, *, #30, .T. ) ;
#175 = ORIENTED_EDGE ( 'NONE', *, *, #84, .F. ) ;
#176 = CARTESIAN_POINT ( 'NONE',  ( 437.5255568199800100, 64.00264869196610100, 0.0000000000000000000 ) ) ;
#177 = VERTEX_POINT ( 'NONE', #115 ) ;
#178 =( NAMED_UNIT ( * ) SI_UNIT ( $, .STERADIAN. ) SOLID_ANGLE_UNIT ( ) );
#179 = CARTESIAN_POINT ( 'NONE',  ( 434.9655568199800100, 64.00264869196615800, 0.0000000000000000000 ) ) ;
#180 =( GEOMETRIC_REPRESENTATION_CONTEXT ( 3 ) GLOBAL_UNCERTAINTY_ASSIGNED_CONTEXT ( ( #2 ) ) GLOBAL_UNIT_ASSIGNED_CONTEXT ( ( #70, #138, #178 ) ) REPRESENTATION_CONTEXT ( 'NONE', 'WORKASPACE' ) );
#181 = DIRECTION ( 'NONE',  ( -1.000000000000000000, -0.0000000000000000000, -0.0000000000000000000 ) ) ;
#182 = SURFACE_SIDE_STYLE ('',( #92 ) ) ;
#183 = ORIENTED_EDGE ( 'NONE', *, *, #109, .F. ) ;
#184 = FILL_AREA_STYLE_COLOUR ( '', #60 ) ;
#185 = CIRCLE ( 'NONE', #133, 5.000000000000004400 ) ;
#186 = ADVANCED_FACE ( 'NONE', ( #123 ), #54, .T. ) ;
ENDSEC;
END-ISO-10303-21;
