ISO-10303-21;
HEADER;
FILE_DESCRIPTION (( 'STEP AP214' ),
    '1' );
FILE_NAME ('100445.STEP',
    '2019-06-10T01:29:54',
    ( '' ),
    ( '' ),
    'SwSTEP 2.0',
    'SolidWorks 2016',
    '' );
FILE_SCHEMA (( 'AUTOMOTIVE_DESIGN' ));
ENDSEC;

DATA;
#1 = CLOSED_SHELL ( 'NONE', ( #14, #145, #61, #110, #141 ) ) ;
#2 = DIRECTION ( 'NONE',  ( -1.000000000000000000, -0.0000000000000000000, -0.0000000000000000000 ) ) ;
#3 = CIRCLE ( 'NONE', #146, 6.349999999999981000 ) ;
#4 = AXIS2_PLACEMENT_3D ( 'NONE', #175, #50, #25 ) ;
#5 = DIRECTION ( 'NONE',  ( -1.000000000000000000, -0.0000000000000000000, -0.0000000000000000000 ) ) ;
#6 = CARTESIAN_POINT ( 'NONE',  ( 608.1386493927261700, 118.7373866979943700, -6.349999999999981000 ) ) ;
#7 = ADVANCED_BREP_SHAPE_REPRESENTATION ( '100445', ( #56, #186 ), #131 ) ;
#8 = DIRECTION ( 'NONE',  ( -1.000000000000000000, -0.0000000000000000000, -0.0000000000000000000 ) ) ;
#9 = EDGE_CURVE ( 'NONE', #157, #83, #45, .T. ) ;
#10 = CARTESIAN_POINT ( 'NONE',  ( 588.4773993927261700, 118.7373866979943100, 0.0000000000000000000 ) ) ;
#11 = DIRECTION ( 'NONE',  ( -0.0000000000000000000, 0.0000000000000000000, 1.000000000000000000 ) ) ;
#12 = ORIENTED_EDGE ( 'NONE', *, *, #37, .F. ) ;
#13 = SURFACE_SIDE_STYLE ('',( #54 ) ) ;
#14 = ADVANCED_FACE ( 'NONE', ( #84 ), #38, .T. ) ;
#15 = AXIS2_PLACEMENT_3D ( 'NONE', #79, #176, #91 ) ;
#16 = ORIENTED_EDGE ( 'NONE', *, *, #98, .T. ) ;
#17 = PRODUCT_DEFINITION_CONTEXT ( 'detailed design', #184, 'design' ) ;
#18 = FILL_AREA_STYLE ('',( #64 ) ) ;
#19 = EDGE_CURVE ( 'NONE', #83, #157, #3, .T. ) ;
#20 = CARTESIAN_POINT ( 'NONE',  ( 606.6386493927261700, 118.7373866979943700, 6.349999999999981000 ) ) ;
#21 = CARTESIAN_POINT ( 'NONE',  ( 608.1386493927261700, 125.0873866979943500, 0.0000000000000000000 ) ) ;
#22 = LINE ( 'NONE', #43, #161 ) ;
#23 = ORIENTED_EDGE ( 'NONE', *, *, #9, .F. ) ;
#24 = PLANE ( 'NONE',  #82 ) ;
#25 = DIRECTION ( 'NONE',  ( 0.0000000000000000000, 1.000000000000000000, 0.0000000000000000000 ) ) ;
#26 = CARTESIAN_POINT ( 'NONE',  ( 606.6386493927261700, 118.7373866979943700, 0.0000000000000000000 ) ) ;
#27 = AXIS2_PLACEMENT_3D ( 'NONE', #103, #150, #160 ) ;
#28 = FACE_OUTER_BOUND ( 'NONE', #92, .T. ) ;
#29 = MECHANICAL_DESIGN_GEOMETRIC_PRESENTATION_REPRESENTATION (  '', ( #167 ), #106 ) ;
#30 = CYLINDRICAL_SURFACE ( 'NONE', #27, 6.349999999999981000 ) ;
#31 = EDGE_CURVE ( 'NONE', #75, #133, #102, .T. ) ;
#32 = VECTOR ( 'NONE', #5, 1000.000000000000000 ) ;
#33 = SURFACE_STYLE_USAGE ( .BOTH. , #46 ) ;
#34 = ORIENTED_EDGE ( 'NONE', *, *, #9, .T. ) ;
#35 =( LENGTH_UNIT ( ) NAMED_UNIT ( * ) SI_UNIT ( .MILLI., .METRE. ) );
#36 = PRESENTATION_STYLE_ASSIGNMENT (( #127 ) ) ;
#37 = EDGE_CURVE ( 'NONE', #75, #83, #72, .T. ) ;
#38 = CYLINDRICAL_SURFACE ( 'NONE', #66, 6.349999999999981000 ) ;
#39 =( NAMED_UNIT ( * ) PLANE_ANGLE_UNIT ( ) SI_UNIT ( $, .RADIAN. ) );
#40 = CARTESIAN_POINT ( 'NONE',  ( 608.1386493927261700, 118.7373866979943700, 6.349999999999981000 ) ) ;
#41 = CARTESIAN_POINT ( 'NONE',  ( 588.4773993927261700, 118.7373866979943100, 0.0000000000000000000 ) ) ;
#42 = ORIENTED_EDGE ( 'NONE', *, *, #31, .T. ) ;
#43 = CARTESIAN_POINT ( 'NONE',  ( 604.3781182468717400, 118.7373866979943700, -6.349999999999981000 ) ) ;
#44 = UNCERTAINTY_MEASURE_WITH_UNIT (LENGTH_MEASURE( 1.000000000000000100E-005 ), #35, 'distance_accuracy_value', 'NONE');
#45 = CIRCLE ( 'NONE', #113, 6.349999999999981000 ) ;
#46 = SURFACE_SIDE_STYLE ('',( #112 ) ) ;
#47 = SHAPE_DEFINITION_REPRESENTATION ( #60, #7 ) ;
#48 = ORIENTED_EDGE ( 'NONE', *, *, #37, .T. ) ;
#49 = DIRECTION ( 'NONE',  ( -1.000000000000000000, -0.0000000000000000000, -0.0000000000000000000 ) ) ;
#50 = DIRECTION ( 'NONE',  ( -0.0000000000000000000, 0.0000000000000000000, -1.000000000000000000 ) ) ;
#51 = DIRECTION ( 'NONE',  ( -0.0000000000000000000, 0.0000000000000000000, -1.000000000000000000 ) ) ;
#52 =( NAMED_UNIT ( * ) SI_UNIT ( $, .STERADIAN. ) SOLID_ANGLE_UNIT ( ) );
#53 = FILL_AREA_STYLE_COLOUR ( '', #85 ) ;
#54 = SURFACE_STYLE_FILL_AREA ( #128 ) ;
#55 =( NAMED_UNIT ( * ) PLANE_ANGLE_UNIT ( ) SI_UNIT ( $, .RADIAN. ) );
#56 = MANIFOLD_SOLID_BREP ( 'Ðý×ª1', #1 ) ;
#57 = SPHERICAL_SURFACE ( 'NONE', #108, 20.66125000000007700 ) ;
#58 = ORIENTED_EDGE ( 'NONE', *, *, #136, .T. ) ;
#59 =( NAMED_UNIT ( * ) SI_UNIT ( $, .STERADIAN. ) SOLID_ANGLE_UNIT ( ) );
#60 = PRODUCT_DEFINITION_SHAPE ( 'NONE', 'NONE',  #170 ) ;
#61 = ADVANCED_FACE ( 'NONE', ( #149 ), #132, .T. ) ;
#62 = ORIENTED_EDGE ( 'NONE', *, *, #31, .F. ) ;
#63 = UNCERTAINTY_MEASURE_WITH_UNIT (LENGTH_MEASURE( 1.000000000000000100E-005 ), #109, 'distance_accuracy_value', 'NONE');
#64 = FILL_AREA_STYLE_COLOUR ( '', #116 ) ;
#65 = DIRECTION ( 'NONE',  ( -1.000000000000000000, -0.0000000000000000000, -0.0000000000000000000 ) ) ;
#66 = AXIS2_PLACEMENT_3D ( 'NONE', #89, #115, #148 ) ;
#67 = DIRECTION ( 'NONE',  ( 0.0000000000000000000, 0.0000000000000000000, 1.000000000000000000 ) ) ;
#68 = CARTESIAN_POINT ( 'NONE',  ( 588.4773993927261700, 118.7373866979943100, 0.0000000000000000000 ) ) ;
#69 = DIRECTION ( 'NONE',  ( -1.000000000000000000, -0.0000000000000000000, -0.0000000000000000000 ) ) ;
#70 = FACE_OUTER_BOUND ( 'NONE', #185, .T. ) ;
#71 = APPLICATION_PROTOCOL_DEFINITION ( 'draft international standard', 'automotive_design', 1998, #184 ) ;
#72 = LINE ( 'NONE', #174, #32 ) ;
#73 = ORIENTED_EDGE ( 'NONE', *, *, #143, .F. ) ;
#74 = AXIS2_PLACEMENT_3D ( 'NONE', #94, #179, #123 ) ;
#75 = VERTEX_POINT ( 'NONE', #40 ) ;
#76 = DIRECTION ( 'NONE',  ( 0.0000000000000000000, 0.0000000000000000000, 1.000000000000000000 ) ) ;
#77 = FACE_OUTER_BOUND ( 'NONE', #86, .T. ) ;
#78 = ORIENTED_EDGE ( 'NONE', *, *, #19, .T. ) ;
#79 = CARTESIAN_POINT ( 'NONE',  ( 608.1386493927261700, 118.7373866979943700, 0.0000000000000000000 ) ) ;
#80 =( NAMED_UNIT ( * ) SI_UNIT ( $, .STERADIAN. ) SOLID_ANGLE_UNIT ( ) );
#81 = ORIENTED_EDGE ( 'NONE', *, *, #173, .T. ) ;
#82 = AXIS2_PLACEMENT_3D ( 'NONE', #26, #138, #151 ) ;
#83 = VERTEX_POINT ( 'NONE', #20 ) ;
#84 = FACE_OUTER_BOUND ( 'NONE', #156, .T. ) ;
#85 = COLOUR_RGB ( '',1.000000000000000000, 1.000000000000000000, 1.000000000000000000 ) ;
#86 = EDGE_LOOP ( 'NONE', ( #178, #16, #73, #154 ) ) ;
#87 = CIRCLE ( 'NONE', #99, 6.349999999999981000 ) ;
#88 =( NAMED_UNIT ( * ) PLANE_ANGLE_UNIT ( ) SI_UNIT ( $, .RADIAN. ) );
#89 = CARTESIAN_POINT ( 'NONE',  ( 604.3781182468717400, 118.7373866979943700, 0.0000000000000000000 ) ) ;
#90 = CIRCLE ( 'NONE', #164, 20.66125000000008800 ) ;
#91 = DIRECTION ( 'NONE',  ( 0.0000000000000000000, 0.0000000000000000000, 1.000000000000000000 ) ) ;
#92 = EDGE_LOOP ( 'NONE', ( #78, #34 ) ) ;
#93 = UNCERTAINTY_MEASURE_WITH_UNIT (LENGTH_MEASURE( 1.000000000000000100E-005 ), #168, 'distance_accuracy_value', 'NONE');
#94 = CARTESIAN_POINT ( 'NONE',  ( 608.1386493927261700, 118.7373866979943700, 0.0000000000000000000 ) ) ;
#95 = CARTESIAN_POINT ( 'NONE',  ( 609.1386493927261700, 118.7373866979943100, 0.0000000000000000000 ) ) ;
#96 = DIRECTION ( 'NONE',  ( 1.000000000000000000, 0.0000000000000000000, 0.0000000000000000000 ) ) ;
#97 = EDGE_LOOP ( 'NONE', ( #162, #147, #62, #144 ) ) ;
#98 = EDGE_CURVE ( 'NONE', #105, #140, #90, .T. ) ;
#99 = AXIS2_PLACEMENT_3D ( 'NONE', #121, #69, #163 ) ;
#100 = PRESENTATION_STYLE_ASSIGNMENT (( #33 ) ) ;
#101 = CARTESIAN_POINT ( 'NONE',  ( 606.6386493927261700, 118.7373866979943700, 0.0000000000000000000 ) ) ;
#102 = CIRCLE ( 'NONE', #125, 6.349999999999981000 ) ;
#103 = CARTESIAN_POINT ( 'NONE',  ( 604.3781182468717400, 118.7373866979943700, 0.0000000000000000000 ) ) ;
#104 = APPLICATION_PROTOCOL_DEFINITION ( 'draft international standard', 'automotive_design', 1998, #180 ) ;
#105 = VERTEX_POINT ( 'NONE', #95 ) ;
#106 =( GEOMETRIC_REPRESENTATION_CONTEXT ( 3 ) GLOBAL_UNCERTAINTY_ASSIGNED_CONTEXT ( ( #63 ) ) GLOBAL_UNIT_ASSIGNED_CONTEXT ( ( #109, #55, #59 ) ) REPRESENTATION_CONTEXT ( 'NONE', 'WORKASPACE' ) );
#107 = CARTESIAN_POINT ( 'NONE',  ( 608.1386493927261700, 112.3873866979943300, -7.776507174585666500E-016 ) ) ;
#108 = AXIS2_PLACEMENT_3D ( 'NONE', #41, #51, #137 ) ;
#109 =( LENGTH_UNIT ( ) NAMED_UNIT ( * ) SI_UNIT ( .MILLI., .METRE. ) );
#110 = ADVANCED_FACE ( 'NONE', ( #70 ), #30, .T. ) ;
#111 = EDGE_CURVE ( 'NONE', #105, #133, #169, .T. ) ;
#112 = SURFACE_STYLE_FILL_AREA ( #18 ) ;
#113 = AXIS2_PLACEMENT_3D ( 'NONE', #117, #65, #158 ) ;
#114 = VERTEX_POINT ( 'NONE', #6 ) ;
#115 = DIRECTION ( 'NONE',  ( -1.000000000000000000, -0.0000000000000000000, -0.0000000000000000000 ) ) ;
#116 = COLOUR_RGB ( '',1.000000000000000000, 1.000000000000000000, 1.000000000000000000 ) ;
#117 = CARTESIAN_POINT ( 'NONE',  ( 606.6386493927261700, 118.7373866979943700, 0.0000000000000000000 ) ) ;
#118 = PRESENTATION_LAYER_ASSIGNMENT (  '', '', ( #155 ) ) ;
#119 = ORIENTED_EDGE ( 'NONE', *, *, #19, .F. ) ;
#120 = PRODUCT_DEFINITION_FORMATION_WITH_SPECIFIED_SOURCE ( 'ÈÎºÎ', '', #182, .NOT_KNOWN. ) ;
#121 = CARTESIAN_POINT ( 'NONE',  ( 608.1386493927261700, 118.7373866979943700, 0.0000000000000000000 ) ) ;
#122 = DIRECTION ( 'NONE',  ( 0.0000000000000000000, 1.000000000000000000, 1.224646799147352700E-016 ) ) ;
#123 = DIRECTION ( 'NONE',  ( 0.0000000000000000000, 0.0000000000000000000, 1.000000000000000000 ) ) ;
#124 = ORIENTED_EDGE ( 'NONE', *, *, #143, .T. ) ;
#125 = AXIS2_PLACEMENT_3D ( 'NONE', #134, #49, #76 ) ;
#126 = DIRECTION ( 'NONE',  ( 0.0000000000000000000, 0.0000000000000000000, 1.000000000000000000 ) ) ;
#127 = SURFACE_STYLE_USAGE ( .BOTH. , #13 ) ;
#128 = FILL_AREA_STYLE ('',( #53 ) ) ;
#129 = CIRCLE ( 'NONE', #15, 6.349999999999981000 ) ;
#130 = PRODUCT_RELATED_PRODUCT_CATEGORY ( 'part', '', ( #182 ) ) ;
#131 =( GEOMETRIC_REPRESENTATION_CONTEXT ( 3 ) GLOBAL_UNCERTAINTY_ASSIGNED_CONTEXT ( ( #93 ) ) GLOBAL_UNIT_ASSIGNED_CONTEXT ( ( #168, #39, #80 ) ) REPRESENTATION_CONTEXT ( 'NONE', 'WORKASPACE' ) );
#132 = SPHERICAL_SURFACE ( 'NONE', #4, 20.66125000000007700 ) ;
#133 = VERTEX_POINT ( 'NONE', #21 ) ;
#134 = CARTESIAN_POINT ( 'NONE',  ( 608.1386493927261700, 118.7373866979943700, 0.0000000000000000000 ) ) ;
#135 = MECHANICAL_DESIGN_GEOMETRIC_PRESENTATION_REPRESENTATION (  '', ( #155 ), #153 ) ;
#136 = EDGE_CURVE ( 'NONE', #140, #75, #129, .T. ) ;
#137 = DIRECTION ( 'NONE',  ( 0.0000000000000000000, 1.000000000000000000, 0.0000000000000000000 ) ) ;
#138 = DIRECTION ( 'NONE',  ( 1.000000000000000000, 0.0000000000000000000, 0.0000000000000000000 ) ) ;
#139 = PRODUCT_CONTEXT ( 'NONE', #180, 'mechanical' ) ;
#140 = VERTEX_POINT ( 'NONE', #107 ) ;
#141 = ADVANCED_FACE ( 'NONE', ( #28 ), #24, .F. ) ;
#142 = ORIENTED_EDGE ( 'NONE', *, *, #181, .T. ) ;
#143 = EDGE_CURVE ( 'NONE', #114, #140, #87, .T. ) ;
#144 = ORIENTED_EDGE ( 'NONE', *, *, #136, .F. ) ;
#145 = ADVANCED_FACE ( 'NONE', ( #77 ), #57, .T. ) ;
#146 = AXIS2_PLACEMENT_3D ( 'NONE', #101, #2, #67 ) ;
#147 = ORIENTED_EDGE ( 'NONE', *, *, #111, .T. ) ;
#148 = DIRECTION ( 'NONE',  ( 0.0000000000000000000, 0.0000000000000000000, 1.000000000000000000 ) ) ;
#149 = FACE_OUTER_BOUND ( 'NONE', #97, .T. ) ;
#150 = DIRECTION ( 'NONE',  ( -1.000000000000000000, -0.0000000000000000000, -0.0000000000000000000 ) ) ;
#151 = DIRECTION ( 'NONE',  ( 0.0000000000000000000, 0.0000000000000000000, -1.000000000000000000 ) ) ;
#152 = CARTESIAN_POINT ( 'NONE',  ( 606.6386493927261700, 118.7373866979943700, -6.349999999999981000 ) ) ;
#153 =( GEOMETRIC_REPRESENTATION_CONTEXT ( 3 ) GLOBAL_UNCERTAINTY_ASSIGNED_CONTEXT ( ( #44 ) ) GLOBAL_UNIT_ASSIGNED_CONTEXT ( ( #35, #88, #52 ) ) REPRESENTATION_CONTEXT ( 'NONE', 'WORKASPACE' ) );
#154 = ORIENTED_EDGE ( 'NONE', *, *, #173, .F. ) ;
#155 = STYLED_ITEM ( 'NONE', ( #100 ), #56 ) ;
#156 = EDGE_LOOP ( 'NONE', ( #81, #142, #119, #12, #42 ) ) ;
#157 = VERTEX_POINT ( 'NONE', #152 ) ;
#158 = DIRECTION ( 'NONE',  ( 0.0000000000000000000, 0.0000000000000000000, 1.000000000000000000 ) ) ;
#159 = AXIS2_PLACEMENT_3D ( 'NONE', #68, #11, #165 ) ;
#160 = DIRECTION ( 'NONE',  ( 0.0000000000000000000, 0.0000000000000000000, 1.000000000000000000 ) ) ;
#161 = VECTOR ( 'NONE', #8, 1000.000000000000000 ) ;
#162 = ORIENTED_EDGE ( 'NONE', *, *, #98, .F. ) ;
#163 = DIRECTION ( 'NONE',  ( 0.0000000000000000000, 0.0000000000000000000, 1.000000000000000000 ) ) ;
#164 = AXIS2_PLACEMENT_3D ( 'NONE', #10, #166, #122 ) ;
#165 = DIRECTION ( 'NONE',  ( 1.000000000000000000, 0.0000000000000000000, 0.0000000000000000000 ) ) ;
#166 = DIRECTION ( 'NONE',  ( 0.0000000000000000000, 1.224646799147353200E-016, -1.000000000000000000 ) ) ;
#167 = STYLED_ITEM ( 'NONE', ( #36 ), #7 ) ;
#168 =( LENGTH_UNIT ( ) NAMED_UNIT ( * ) SI_UNIT ( .MILLI., .METRE. ) );
#169 = CIRCLE ( 'NONE', #159, 20.66125000000007400 ) ;
#170 = PRODUCT_DEFINITION ( 'Î´Öª', '', #120, #17 ) ;
#171 = PRESENTATION_LAYER_ASSIGNMENT (  '', '', ( #167 ) ) ;
#172 = CIRCLE ( 'NONE', #74, 6.349999999999981000 ) ;
#173 = EDGE_CURVE ( 'NONE', #133, #114, #172, .T. ) ;
#174 = CARTESIAN_POINT ( 'NONE',  ( 604.3781182468717400, 118.7373866979943700, 6.349999999999981000 ) ) ;
#175 = CARTESIAN_POINT ( 'NONE',  ( 588.4773993927261700, 118.7373866979943100, 0.0000000000000000000 ) ) ;
#176 = DIRECTION ( 'NONE',  ( -1.000000000000000000, -0.0000000000000000000, -0.0000000000000000000 ) ) ;
#177 = CARTESIAN_POINT ( 'NONE',  ( 0.0000000000000000000, 0.0000000000000000000, 0.0000000000000000000 ) ) ;
#178 = ORIENTED_EDGE ( 'NONE', *, *, #111, .F. ) ;
#179 = DIRECTION ( 'NONE',  ( -1.000000000000000000, -0.0000000000000000000, -0.0000000000000000000 ) ) ;
#180 = APPLICATION_CONTEXT ( 'automotive_design' ) ;
#181 = EDGE_CURVE ( 'NONE', #114, #157, #22, .T. ) ;
#182 = PRODUCT ( '100445', '100445', '', ( #139 ) ) ;
#183 = ORIENTED_EDGE ( 'NONE', *, *, #181, .F. ) ;
#184 = APPLICATION_CONTEXT ( 'automotive_design' ) ;
#185 = EDGE_LOOP ( 'NONE', ( #183, #124, #58, #48, #23 ) ) ;
#186 = AXIS2_PLACEMENT_3D ( 'NONE', #177, #126, #96 ) ;
ENDSEC;
END-ISO-10303-21;
