ISO-10303-21;
HEADER;
FILE_DESCRIPTION (( 'STEP AP214' ),
    '1' );
FILE_NAME ('100451.STEP',
    '2019-06-10T02:39:30',
    ( '' ),
    ( '' ),
    'SwSTEP 2.0',
    'SolidWorks 2016',
    '' );
FILE_SCHEMA (( 'AUTOMOTIVE_DESIGN' ));
ENDSEC;

DATA;
#1 = CARTESIAN_POINT ( 'NONE',  ( 1080.257789719899200, 150.6809850656565000, 0.0000000000000000000 ) ) ;
#2 = CARTESIAN_POINT ( 'NONE',  ( 1079.357789719899300, 150.6809850656562700, 0.0000000000000000000 ) ) ;
#3 = CARTESIAN_POINT ( 'NONE',  ( 1071.619571684223300, 150.6809850656562700, 0.0000000000000000000 ) ) ;
#4 = EDGE_CURVE ( 'NONE', #100, #150, #167, .T. ) ;
#5 = CARTESIAN_POINT ( 'NONE',  ( 1079.357789719899300, 150.6809850656562700, 12.69999999999998900 ) ) ;
#6 = FILL_AREA_STYLE_COLOUR ( '', #87 ) ;
#7 = APPLICATION_CONTEXT ( 'automotive_design' ) ;
#8 = CIRCLE ( 'NONE', #16, 12.69999999999998900 ) ;
#9 = DIRECTION ( 'NONE',  ( -1.000000000000000000, -0.0000000000000000000, -0.0000000000000000000 ) ) ;
#10 =( NAMED_UNIT ( * ) SI_UNIT ( $, .STERADIAN. ) SOLID_ANGLE_UNIT ( ) );
#11 = ADVANCED_FACE ( 'NONE', ( #40 ), #136, .T. ) ;
#12 = AXIS2_PLACEMENT_3D ( 'NONE', #2, #118, #53 ) ;
#13 = EDGE_LOOP ( 'NONE', ( #60, #146, #130, #103, #19 ) ) ;
#14 = AXIS2_PLACEMENT_3D ( 'NONE', #161, #9, #69 ) ;
#15 = ORIENTED_EDGE ( 'NONE', *, *, #22, .T. ) ;
#16 = AXIS2_PLACEMENT_3D ( 'NONE', #142, #46, #35 ) ;
#17 = ORIENTED_EDGE ( 'NONE', *, *, #139, .F. ) ;
#18 = DIRECTION ( 'NONE',  ( -1.000000000000000000, -0.0000000000000000000, -0.0000000000000000000 ) ) ;
#19 = ORIENTED_EDGE ( 'NONE', *, *, #149, .F. ) ;
#20 = DIRECTION ( 'NONE',  ( -1.000000000000000000, -0.0000000000000000000, -0.0000000000000000000 ) ) ;
#21 = ORIENTED_EDGE ( 'NONE', *, *, #129, .T. ) ;
#22 = EDGE_CURVE ( 'NONE', #114, #150, #8, .T. ) ;
#23 = CIRCLE ( 'NONE', #14, 12.69999999999998900 ) ;
#24 = DIRECTION ( 'NONE',  ( 1.000000000000000000, 0.0000000000000000000, 0.0000000000000000000 ) ) ;
#25 = APPLICATION_PROTOCOL_DEFINITION ( 'draft international standard', 'automotive_design', 1998, #7 ) ;
#26 =( NAMED_UNIT ( * ) SI_UNIT ( $, .STERADIAN. ) SOLID_ANGLE_UNIT ( ) );
#27 = AXIS2_PLACEMENT_3D ( 'NONE', #64, #79, #115 ) ;
#28 = VECTOR ( 'NONE', #174, 1000.000000000000000 ) ;
#29 = PRESENTATION_LAYER_ASSIGNMENT (  '', '', ( #94 ) ) ;
#30 = ORIENTED_EDGE ( 'NONE', *, *, #22, .F. ) ;
#31 = AXIS2_PLACEMENT_3D ( 'NONE', #158, #20, #116 ) ;
#32 = CLOSED_SHELL ( 'NONE', ( #111, #55, #11, #83, #164 ) ) ;
#33 = CARTESIAN_POINT ( 'NONE',  ( 990.2022341643453300, 150.6809850656565000, 0.0000000000000000000 ) ) ;
#34 = DIRECTION ( 'NONE',  ( -1.000000000000000000, -0.0000000000000000000, -0.0000000000000000000 ) ) ;
#35 = DIRECTION ( 'NONE',  ( 0.0000000000000000000, 0.0000000000000000000, 1.000000000000000000 ) ) ;
#36 = UNCERTAINTY_MEASURE_WITH_UNIT (LENGTH_MEASURE( 1.000000000000000100E-005 ), #132, 'distance_accuracy_value', 'NONE');
#37 = PRODUCT ( '100451', '100451', '', ( #121 ) ) ;
#38 =( GEOMETRIC_REPRESENTATION_CONTEXT ( 3 ) GLOBAL_UNCERTAINTY_ASSIGNED_CONTEXT ( ( #107 ) ) GLOBAL_UNIT_ASSIGNED_CONTEXT ( ( #66, #95, #10 ) ) REPRESENTATION_CONTEXT ( 'NONE', 'WORKASPACE' ) );
#39 = CARTESIAN_POINT ( 'NONE',  ( 0.0000000000000000000, 0.0000000000000000000, 0.0000000000000000000 ) ) ;
#40 = FACE_OUTER_BOUND ( 'NONE', #126, .T. ) ;
#41 = EDGE_CURVE ( 'NONE', #100, #168, #112, .T. ) ;
#42 = PRODUCT_DEFINITION_FORMATION_WITH_SPECIFIED_SOURCE ( 'ÈÎºÎ', '', #37, .NOT_KNOWN. ) ;
#43 = ORIENTED_EDGE ( 'NONE', *, *, #123, .F. ) ;
#44 = SURFACE_STYLE_FILL_AREA ( #183 ) ;
#45 = CARTESIAN_POINT ( 'NONE',  ( 1079.357789719899300, 150.6809850656562700, 0.0000000000000000000 ) ) ;
#46 = DIRECTION ( 'NONE',  ( -1.000000000000000000, -0.0000000000000000000, -0.0000000000000000000 ) ) ;
#47 = CARTESIAN_POINT ( 'NONE',  ( 1071.619571684223300, 150.6809850656562700, 0.0000000000000000000 ) ) ;
#48 = DIRECTION ( 'NONE',  ( 0.0000000000000000000, 0.0000000000000000000, 1.000000000000000000 ) ) ;
#49 =( GEOMETRIC_REPRESENTATION_CONTEXT ( 3 ) GLOBAL_UNCERTAINTY_ASSIGNED_CONTEXT ( ( #71 ) ) GLOBAL_UNIT_ASSIGNED_CONTEXT ( ( #89, #141, #65 ) ) REPRESENTATION_CONTEXT ( 'NONE', 'WORKASPACE' ) );
#50 = VERTEX_POINT ( 'NONE', #106 ) ;
#51 =( NAMED_UNIT ( * ) PLANE_ANGLE_UNIT ( ) SI_UNIT ( $, .RADIAN. ) );
#52 = SHAPE_DEFINITION_REPRESENTATION ( #170, #180 ) ;
#53 = DIRECTION ( 'NONE',  ( 0.0000000000000000000, 0.0000000000000000000, 1.000000000000000000 ) ) ;
#54 = EDGE_LOOP ( 'NONE', ( #138, #96 ) ) ;
#55 = ADVANCED_FACE ( 'NONE', ( #154 ), #70, .T. ) ;
#56 = EDGE_CURVE ( 'NONE', #114, #109, #75, .T. ) ;
#57 = ORIENTED_EDGE ( 'NONE', *, *, #4, .T. ) ;
#58 = PRODUCT_DEFINITION ( 'Î´Öª', '', #42, #113 ) ;
#59 = CARTESIAN_POINT ( 'NONE',  ( 990.2022341643453300, 150.6809850656565000, 0.0000000000000000000 ) ) ;
#60 = ORIENTED_EDGE ( 'NONE', *, *, #129, .F. ) ;
#61 = AXIS2_PLACEMENT_3D ( 'NONE', #59, #153, #86 ) ;
#62 = EDGE_LOOP ( 'NONE', ( #172, #21, #182, #74, #15 ) ) ;
#63 = AXIS2_PLACEMENT_3D ( 'NONE', #160, #81, #131 ) ;
#64 = CARTESIAN_POINT ( 'NONE',  ( 990.2022341643453300, 150.6809850656565000, 0.0000000000000000000 ) ) ;
#65 =( NAMED_UNIT ( * ) SI_UNIT ( $, .STERADIAN. ) SOLID_ANGLE_UNIT ( ) );
#66 =( LENGTH_UNIT ( ) NAMED_UNIT ( * ) SI_UNIT ( .MILLI., .METRE. ) );
#67 = DIRECTION ( 'NONE',  ( 0.0000000000000000000, 0.0000000000000000000, -1.000000000000000000 ) ) ;
#68 = EDGE_LOOP ( 'NONE', ( #176, #57, #30, #17 ) ) ;
#69 = DIRECTION ( 'NONE',  ( 0.0000000000000000000, 0.0000000000000000000, 1.000000000000000000 ) ) ;
#70 = SPHERICAL_SURFACE ( 'NONE', #133, 90.05555555555403700 ) ;
#71 = UNCERTAINTY_MEASURE_WITH_UNIT (LENGTH_MEASURE( 1.000000000000000100E-005 ), #89, 'distance_accuracy_value', 'NONE');
#72 = CIRCLE ( 'NONE', #143, 12.69999999999998900 ) ;
#73 = AXIS2_PLACEMENT_3D ( 'NONE', #47, #34, #173 ) ;
#74 = ORIENTED_EDGE ( 'NONE', *, *, #56, .F. ) ;
#75 = LINE ( 'NONE', #88, #28 ) ;
#76 = VECTOR ( 'NONE', #18, 1000.000000000000000 ) ;
#77 = CARTESIAN_POINT ( 'NONE',  ( 1071.619571684223300, 150.6809850656562700, -12.69999999999998900 ) ) ;
#78 = DIRECTION ( 'NONE',  ( 0.0000000000000000000, -1.000000000000000000, 0.0000000000000000000 ) ) ;
#79 = DIRECTION ( 'NONE',  ( 0.0000000000000000000, 0.0000000000000000000, -1.000000000000000000 ) ) ;
#80 = SURFACE_STYLE_FILL_AREA ( #144 ) ;
#81 = DIRECTION ( 'NONE',  ( -1.000000000000000000, -0.0000000000000000000, -0.0000000000000000000 ) ) ;
#82 = AXIS2_PLACEMENT_3D ( 'NONE', #3, #157, #125 ) ;
#83 = ADVANCED_FACE ( 'NONE', ( #105 ), #122, .T. ) ;
#84 = MECHANICAL_DESIGN_GEOMETRIC_PRESENTATION_REPRESENTATION (  '', ( #94 ), #38 ) ;
#85 = MANIFOLD_SOLID_BREP ( 'Ðý×ª1', #32 ) ;
#86 = DIRECTION ( 'NONE',  ( 0.0000000000000000000, -1.000000000000000000, -1.224646799147353200E-016 ) ) ;
#87 = COLOUR_RGB ( '',1.000000000000000000, 1.000000000000000000, 1.000000000000000000 ) ;
#88 = CARTESIAN_POINT ( 'NONE',  ( 1071.619571684223300, 150.6809850656562700, 12.69999999999998900 ) ) ;
#89 =( LENGTH_UNIT ( ) NAMED_UNIT ( * ) SI_UNIT ( .MILLI., .METRE. ) );
#90 = CARTESIAN_POINT ( 'NONE',  ( 1079.357789719899300, 163.3809850656560900, 1.555301434917089700E-015 ) ) ;
#91 = APPLICATION_CONTEXT ( 'automotive_design' ) ;
#92 = CYLINDRICAL_SURFACE ( 'NONE', #82, 12.69999999999998900 ) ;
#93 = DIRECTION ( 'NONE',  ( 1.000000000000000000, 0.0000000000000000000, 0.0000000000000000000 ) ) ;
#94 = STYLED_ITEM ( 'NONE', ( #156 ), #180 ) ;
#95 =( NAMED_UNIT ( * ) PLANE_ANGLE_UNIT ( ) SI_UNIT ( $, .RADIAN. ) );
#96 = ORIENTED_EDGE ( 'NONE', *, *, #149, .T. ) ;
#97 = EDGE_CURVE ( 'NONE', #50, #168, #159, .T. ) ;
#98 = AXIS2_PLACEMENT_3D ( 'NONE', #181, #24, #67 ) ;
#99 = ORIENTED_EDGE ( 'NONE', *, *, #41, .T. ) ;
#100 = VERTEX_POINT ( 'NONE', #1 ) ;
#101 = ORIENTED_EDGE ( 'NONE', *, *, #97, .F. ) ;
#102 = FACE_OUTER_BOUND ( 'NONE', #54, .T. ) ;
#103 = ORIENTED_EDGE ( 'NONE', *, *, #56, .T. ) ;
#104 = DIRECTION ( 'NONE',  ( 0.0000000000000000000, -1.000000000000000000, 0.0000000000000000000 ) ) ;
#105 = FACE_OUTER_BOUND ( 'NONE', #13, .T. ) ;
#106 = CARTESIAN_POINT ( 'NONE',  ( 1079.357789719899300, 150.6809850656562700, -12.69999999999998900 ) ) ;
#107 = UNCERTAINTY_MEASURE_WITH_UNIT (LENGTH_MEASURE( 1.000000000000000100E-005 ), #66, 'distance_accuracy_value', 'NONE');
#108 = DIRECTION ( 'NONE',  ( 0.0000000000000000000, 0.0000000000000000000, 1.000000000000000000 ) ) ;
#109 = VERTEX_POINT ( 'NONE', #117 ) ;
#110 = CARTESIAN_POINT ( 'NONE',  ( 1079.357789719899300, 137.9809850656566800, 0.0000000000000000000 ) ) ;
#111 = ADVANCED_FACE ( 'NONE', ( #135 ), #92, .T. ) ;
#112 = CIRCLE ( 'NONE', #27, 90.05555555555400800 ) ;
#113 = PRODUCT_DEFINITION_CONTEXT ( 'detailed design', #91, 'design' ) ;
#114 = VERTEX_POINT ( 'NONE', #5 ) ;
#115 = DIRECTION ( 'NONE',  ( -1.000000000000000000, 0.0000000000000000000, 0.0000000000000000000 ) ) ;
#116 = DIRECTION ( 'NONE',  ( 0.0000000000000000000, 0.0000000000000000000, 1.000000000000000000 ) ) ;
#117 = CARTESIAN_POINT ( 'NONE',  ( 1077.357789719899300, 150.6809850656562700, 12.69999999999998900 ) ) ;
#118 = DIRECTION ( 'NONE',  ( -1.000000000000000000, -0.0000000000000000000, -0.0000000000000000000 ) ) ;
#119 = COLOUR_RGB ( '',1.000000000000000000, 1.000000000000000000, 1.000000000000000000 ) ;
#120 = FILL_AREA_STYLE_COLOUR ( '', #119 ) ;
#121 = PRODUCT_CONTEXT ( 'NONE', #7, 'mechanical' ) ;
#122 = CYLINDRICAL_SURFACE ( 'NONE', #73, 12.69999999999998900 ) ;
#123 = EDGE_CURVE ( 'NONE', #150, #50, #72, .T. ) ;
#124 = CIRCLE ( 'NONE', #12, 12.69999999999998900 ) ;
#125 = DIRECTION ( 'NONE',  ( 0.0000000000000000000, 0.0000000000000000000, 1.000000000000000000 ) ) ;
#126 = EDGE_LOOP ( 'NONE', ( #163, #99, #101, #43 ) ) ;
#127 = SURFACE_SIDE_STYLE ('',( #80 ) ) ;
#128 = DIRECTION ( 'NONE',  ( -1.000000000000000000, -0.0000000000000000000, -0.0000000000000000000 ) ) ;
#129 = EDGE_CURVE ( 'NONE', #50, #184, #148, .T. ) ;
#130 = ORIENTED_EDGE ( 'NONE', *, *, #139, .T. ) ;
#131 = DIRECTION ( 'NONE',  ( 0.0000000000000000000, 0.0000000000000000000, 1.000000000000000000 ) ) ;
#132 =( LENGTH_UNIT ( ) NAMED_UNIT ( * ) SI_UNIT ( .MILLI., .METRE. ) );
#133 = AXIS2_PLACEMENT_3D ( 'NONE', #33, #48, #104 ) ;
#134 = PRODUCT_RELATED_PRODUCT_CATEGORY ( 'part', '', ( #37 ) ) ;
#135 = FACE_OUTER_BOUND ( 'NONE', #62, .T. ) ;
#136 = SPHERICAL_SURFACE ( 'NONE', #151, 90.05555555555403700 ) ;
#137 = CARTESIAN_POINT ( 'NONE',  ( 990.2022341643453300, 150.6809850656565000, 0.0000000000000000000 ) ) ;
#138 = ORIENTED_EDGE ( 'NONE', *, *, #169, .T. ) ;
#139 = EDGE_CURVE ( 'NONE', #168, #114, #124, .T. ) ;
#140 = DIRECTION ( 'NONE',  ( 0.0000000000000000000, 0.0000000000000000000, 1.000000000000000000 ) ) ;
#141 =( NAMED_UNIT ( * ) PLANE_ANGLE_UNIT ( ) SI_UNIT ( $, .RADIAN. ) );
#142 = CARTESIAN_POINT ( 'NONE',  ( 1079.357789719899300, 150.6809850656562700, 0.0000000000000000000 ) ) ;
#143 = AXIS2_PLACEMENT_3D ( 'NONE', #45, #128, #140 ) ;
#144 = FILL_AREA_STYLE ('',( #6 ) ) ;
#145 = SURFACE_SIDE_STYLE ('',( #44 ) ) ;
#146 = ORIENTED_EDGE ( 'NONE', *, *, #97, .T. ) ;
#147 = CARTESIAN_POINT ( 'NONE',  ( 1077.357789719899300, 150.6809850656562700, -12.69999999999998900 ) ) ;
#148 = LINE ( 'NONE', #77, #76 ) ;
#149 = EDGE_CURVE ( 'NONE', #184, #109, #179, .T. ) ;
#150 = VERTEX_POINT ( 'NONE', #90 ) ;
#151 = AXIS2_PLACEMENT_3D ( 'NONE', #137, #155, #78 ) ;
#152 = AXIS2_PLACEMENT_3D ( 'NONE', #39, #108, #93 ) ;
#153 = DIRECTION ( 'NONE',  ( 0.0000000000000000000, -1.224646799147353200E-016, 1.000000000000000000 ) ) ;
#154 = FACE_OUTER_BOUND ( 'NONE', #68, .T. ) ;
#155 = DIRECTION ( 'NONE',  ( 0.0000000000000000000, 0.0000000000000000000, 1.000000000000000000 ) ) ;
#156 = PRESENTATION_STYLE_ASSIGNMENT (( #162 ) ) ;
#157 = DIRECTION ( 'NONE',  ( -1.000000000000000000, -0.0000000000000000000, -0.0000000000000000000 ) ) ;
#158 = CARTESIAN_POINT ( 'NONE',  ( 1079.357789719899300, 150.6809850656562700, 0.0000000000000000000 ) ) ;
#159 = CIRCLE ( 'NONE', #31, 12.69999999999998900 ) ;
#160 = CARTESIAN_POINT ( 'NONE',  ( 1077.357789719899300, 150.6809850656562700, 0.0000000000000000000 ) ) ;
#161 = CARTESIAN_POINT ( 'NONE',  ( 1077.357789719899300, 150.6809850656562700, 0.0000000000000000000 ) ) ;
#162 = SURFACE_STYLE_USAGE ( .BOTH. , #145 ) ;
#163 = ORIENTED_EDGE ( 'NONE', *, *, #4, .F. ) ;
#164 = ADVANCED_FACE ( 'NONE', ( #102 ), #178, .F. ) ;
#165 = APPLICATION_PROTOCOL_DEFINITION ( 'draft international standard', 'automotive_design', 1998, #91 ) ;
#166 = STYLED_ITEM ( 'NONE', ( #171 ), #85 ) ;
#167 = CIRCLE ( 'NONE', #61, 90.05555555555403700 ) ;
#168 = VERTEX_POINT ( 'NONE', #110 ) ;
#169 = EDGE_CURVE ( 'NONE', #109, #184, #23, .T. ) ;
#170 = PRODUCT_DEFINITION_SHAPE ( 'NONE', 'NONE',  #58 ) ;
#171 = PRESENTATION_STYLE_ASSIGNMENT (( #175 ) ) ;
#172 = ORIENTED_EDGE ( 'NONE', *, *, #123, .T. ) ;
#173 = DIRECTION ( 'NONE',  ( 0.0000000000000000000, 0.0000000000000000000, 1.000000000000000000 ) ) ;
#174 = DIRECTION ( 'NONE',  ( -1.000000000000000000, -0.0000000000000000000, -0.0000000000000000000 ) ) ;
#175 = SURFACE_STYLE_USAGE ( .BOTH. , #127 ) ;
#176 = ORIENTED_EDGE ( 'NONE', *, *, #41, .F. ) ;
#177 = PRESENTATION_LAYER_ASSIGNMENT (  '', '', ( #166 ) ) ;
#178 = PLANE ( 'NONE',  #98 ) ;
#179 = CIRCLE ( 'NONE', #63, 12.69999999999998900 ) ;
#180 = ADVANCED_BREP_SHAPE_REPRESENTATION ( '100451', ( #85, #152 ), #185 ) ;
#181 = CARTESIAN_POINT ( 'NONE',  ( 1077.357789719899300, 150.6809850656562700, 0.0000000000000000000 ) ) ;
#182 = ORIENTED_EDGE ( 'NONE', *, *, #169, .F. ) ;
#183 = FILL_AREA_STYLE ('',( #120 ) ) ;
#184 = VERTEX_POINT ( 'NONE', #147 ) ;
#185 =( GEOMETRIC_REPRESENTATION_CONTEXT ( 3 ) GLOBAL_UNCERTAINTY_ASSIGNED_CONTEXT ( ( #36 ) ) GLOBAL_UNIT_ASSIGNED_CONTEXT ( ( #132, #51, #26 ) ) REPRESENTATION_CONTEXT ( 'NONE', 'WORKASPACE' ) );
#186 = MECHANICAL_DESIGN_GEOMETRIC_PRESENTATION_REPRESENTATION (  '', ( #166 ), #49 ) ;
ENDSEC;
END-ISO-10303-21;
