ISO-10303-21;
HEADER;
FILE_DESCRIPTION (( 'STEP AP214' ),
    '1' );
FILE_NAME ('100469.STEP',
    '2019-06-11T03:19:36',
    ( '' ),
    ( '' ),
    'SwSTEP 2.0',
    'SolidWorks 2016',
    '' );
FILE_SCHEMA (( 'AUTOMOTIVE_DESIGN' ));
ENDSEC;

DATA;
#1 = ORIENTED_EDGE ( 'NONE', *, *, #158, .T. ) ;
#2 = EDGE_CURVE ( 'NONE', #34, #3, #107, .T. ) ;
#3 = VERTEX_POINT ( 'NONE', #170 ) ;
#4 =( NAMED_UNIT ( * ) PLANE_ANGLE_UNIT ( ) SI_UNIT ( $, .RADIAN. ) );
#5 = FILL_AREA_STYLE_COLOUR ( '', #132 ) ;
#6 = SURFACE_SIDE_STYLE ('',( #131 ) ) ;
#7 = DIRECTION ( 'NONE',  ( -0.0000000000000000000, 0.0000000000000000000, 1.000000000000000000 ) ) ;
#8 = EDGE_CURVE ( 'NONE', #169, #40, #142, .T. ) ;
#9 = ADVANCED_FACE ( 'NONE', ( #185 ), #29, .T. ) ;
#10 = ADVANCED_FACE ( 'NONE', ( #145 ), #66, .T. ) ;
#11 = ORIENTED_EDGE ( 'NONE', *, *, #180, .T. ) ;
#12 = AXIS2_PLACEMENT_3D ( 'NONE', #21, #124, #76 ) ;
#13 = CARTESIAN_POINT ( 'NONE',  ( 208.2753766883342300, 4.506726093844136500, 0.0000000000000000000 ) ) ;
#14 = SPHERICAL_SURFACE ( 'NONE', #135, 50.60312500000016900 ) ;
#15 = DIRECTION ( 'NONE',  ( -1.000000000000000000, -0.0000000000000000000, -0.0000000000000000000 ) ) ;
#16 = ORIENTED_EDGE ( 'NONE', *, *, #2, .T. ) ;
#17 =( NAMED_UNIT ( * ) PLANE_ANGLE_UNIT ( ) SI_UNIT ( $, .RADIAN. ) );
#18 = CARTESIAN_POINT ( 'NONE',  ( 211.1444857061724200, 4.506726093844136500, 0.0000000000000000000 ) ) ;
#19 = EDGE_CURVE ( 'NONE', #73, #3, #80, .T. ) ;
#20 = CARTESIAN_POINT ( 'NONE',  ( 212.7444857061724100, 4.506726093844136500, 0.0000000000000000000 ) ) ;
#21 = CARTESIAN_POINT ( 'NONE',  ( 211.1444857061724200, 4.506726093844136500, 0.0000000000000000000 ) ) ;
#22 = STYLED_ITEM ( 'NONE', ( #165 ), #123 ) ;
#23 = DIRECTION ( 'NONE',  ( -1.000000000000000000, -0.0000000000000000000, -0.0000000000000000000 ) ) ;
#24 = CIRCLE ( 'NONE', #163, 6.350000000000001400 ) ;
#25 = CARTESIAN_POINT ( 'NONE',  ( 212.7444857061724100, 4.506726093844136500, 0.0000000000000000000 ) ) ;
#26 = ADVANCED_FACE ( 'NONE', ( #121 ), #44, .T. ) ;
#27 = ORIENTED_EDGE ( 'NONE', *, *, #177, .T. ) ;
#28 = CIRCLE ( 'NONE', #108, 6.350000000000001400 ) ;
#29 = CYLINDRICAL_SURFACE ( 'NONE', #126, 6.350000000000001400 ) ;
#30 = DIRECTION ( 'NONE',  ( -1.000000000000000000, -0.0000000000000000000, -0.0000000000000000000 ) ) ;
#31 = APPLICATION_CONTEXT ( 'automotive_design' ) ;
#32 = DIRECTION ( 'NONE',  ( -1.000000000000000000, -0.0000000000000000000, -0.0000000000000000000 ) ) ;
#33 = MECHANICAL_DESIGN_GEOMETRIC_PRESENTATION_REPRESENTATION (  '', ( #62 ), #70 ) ;
#34 = VERTEX_POINT ( 'NONE', #153 ) ;
#35 = SHAPE_DEFINITION_REPRESENTATION ( #119, #63 ) ;
#36 = CARTESIAN_POINT ( 'NONE',  ( 211.1444857061724200, 4.506726093844136500, 0.0000000000000000000 ) ) ;
#37 = ORIENTED_EDGE ( 'NONE', *, *, #106, .F. ) ;
#38 = CARTESIAN_POINT ( 'NONE',  ( 162.5413607061722400, 4.506726093844095600, 0.0000000000000000000 ) ) ;
#39 = CARTESIAN_POINT ( 'NONE',  ( 211.1444857061724200, 4.506726093844137400, -6.350000000000001400 ) ) ;
#40 = VERTEX_POINT ( 'NONE', #138 ) ;
#41 = CARTESIAN_POINT ( 'NONE',  ( 162.5413607061722400, 4.506726093844095600, 0.0000000000000000000 ) ) ;
#42 = ORIENTED_EDGE ( 'NONE', *, *, #19, .T. ) ;
#43 = PRESENTATION_LAYER_ASSIGNMENT (  '', '', ( #62 ) ) ;
#44 = SPHERICAL_SURFACE ( 'NONE', #129, 50.60312500000016900 ) ;
#45 = SURFACE_SIDE_STYLE ('',( #56 ) ) ;
#46 = EDGE_LOOP ( 'NONE', ( #103, #96 ) ) ;
#47 = COLOUR_RGB ( '',1.000000000000000000, 1.000000000000000000, 1.000000000000000000 ) ;
#48 = APPLICATION_CONTEXT ( 'automotive_design' ) ;
#49 = UNCERTAINTY_MEASURE_WITH_UNIT (LENGTH_MEASURE( 1.000000000000000100E-005 ), #175, 'distance_accuracy_value', 'NONE');
#50 = PRESENTATION_STYLE_ASSIGNMENT (( #87 ) ) ;
#51 = PLANE ( 'NONE',  #184 ) ;
#52 = CARTESIAN_POINT ( 'NONE',  ( 212.7444857061724100, 4.506726093844136500, 6.350000000000001400 ) ) ;
#53 = DIRECTION ( 'NONE',  ( 0.0000000000000000000, 1.000000000000000000, 0.0000000000000000000 ) ) ;
#54 = DIRECTION ( 'NONE',  ( 0.0000000000000000000, 0.0000000000000000000, 1.000000000000000000 ) ) ;
#55 = ORIENTED_EDGE ( 'NONE', *, *, #128, .F. ) ;
#56 = SURFACE_STYLE_FILL_AREA ( #99 ) ;
#57 = CIRCLE ( 'NONE', #12, 6.350000000000001400 ) ;
#58 = UNCERTAINTY_MEASURE_WITH_UNIT (LENGTH_MEASURE( 1.000000000000000100E-005 ), #174, 'distance_accuracy_value', 'NONE');
#59 = ORIENTED_EDGE ( 'NONE', *, *, #106, .T. ) ;
#60 = CIRCLE ( 'NONE', #171, 50.60312500000016900 ) ;
#61 = DIRECTION ( 'NONE',  ( 0.0000000000000000000, 0.0000000000000000000, 1.000000000000000000 ) ) ;
#62 = STYLED_ITEM ( 'NONE', ( #50 ), #63 ) ;
#63 = ADVANCED_BREP_SHAPE_REPRESENTATION ( '100469', ( #123, #120 ), #94 ) ;
#64 = DIRECTION ( 'NONE',  ( -1.000000000000000000, -0.0000000000000000000, -0.0000000000000000000 ) ) ;
#65 = VERTEX_POINT ( 'NONE', #39 ) ;
#66 = CYLINDRICAL_SURFACE ( 'NONE', #81, 6.350000000000001400 ) ;
#67 = ADVANCED_FACE ( 'NONE', ( #90 ), #14, .T. ) ;
#68 =( LENGTH_UNIT ( ) NAMED_UNIT ( * ) SI_UNIT ( .MILLI., .METRE. ) );
#69 = ORIENTED_EDGE ( 'NONE', *, *, #177, .F. ) ;
#70 =( GEOMETRIC_REPRESENTATION_CONTEXT ( 3 ) GLOBAL_UNCERTAINTY_ASSIGNED_CONTEXT ( ( #49 ) ) GLOBAL_UNIT_ASSIGNED_CONTEXT ( ( #175, #17, #136 ) ) REPRESENTATION_CONTEXT ( 'NONE', 'WORKASPACE' ) );
#71 = MECHANICAL_DESIGN_GEOMETRIC_PRESENTATION_REPRESENTATION (  '', ( #22 ), #144 ) ;
#72 = PRODUCT_CONTEXT ( 'NONE', #31, 'mechanical' ) ;
#73 = VERTEX_POINT ( 'NONE', #52 ) ;
#74 = DIRECTION ( 'NONE',  ( 1.000000000000000000, 0.0000000000000000000, 0.0000000000000000000 ) ) ;
#75 = CARTESIAN_POINT ( 'NONE',  ( 211.1444857061724200, 4.506726093844136500, 6.350000000000001400 ) ) ;
#76 = DIRECTION ( 'NONE',  ( 0.0000000000000000000, 0.0000000000000000000, 1.000000000000000000 ) ) ;
#77 = PRODUCT_DEFINITION ( 'Î´Öª', '', #88, #110 ) ;
#78 = DIRECTION ( 'NONE',  ( 1.000000000000000000, 0.0000000000000000000, 0.0000000000000000000 ) ) ;
#79 = ADVANCED_FACE ( 'NONE', ( #173 ), #51, .F. ) ;
#80 = CIRCLE ( 'NONE', #112, 6.350000000000001400 ) ;
#81 = AXIS2_PLACEMENT_3D ( 'NONE', #13, #130, #101 ) ;
#82 = ORIENTED_EDGE ( 'NONE', *, *, #141, .F. ) ;
#83 = LINE ( 'NONE', #176, #91 ) ;
#84 = CARTESIAN_POINT ( 'NONE',  ( 212.7444857061724100, 4.506726093844136500, 0.0000000000000000000 ) ) ;
#85 = VERTEX_POINT ( 'NONE', #75 ) ;
#86 = DIRECTION ( 'NONE',  ( 0.0000000000000000000, 0.0000000000000000000, 1.000000000000000000 ) ) ;
#87 = SURFACE_STYLE_USAGE ( .BOTH. , #45 ) ;
#88 = PRODUCT_DEFINITION_FORMATION_WITH_SPECIFIED_SOURCE ( 'ÈÎºÎ', '', #186, .NOT_KNOWN. ) ;
#89 = CARTESIAN_POINT ( 'NONE',  ( 208.2753766883342300, 4.506726093844136500, 0.0000000000000000000 ) ) ;
#90 = FACE_OUTER_BOUND ( 'NONE', #125, .T. ) ;
#91 = VECTOR ( 'NONE', #116, 1000.000000000000000 ) ;
#92 = DIRECTION ( 'NONE',  ( -0.0000000000000000000, 0.0000000000000000000, -1.000000000000000000 ) ) ;
#93 = DIRECTION ( 'NONE',  ( 0.0000000000000000000, 0.0000000000000000000, 1.000000000000000000 ) ) ;
#94 =( GEOMETRIC_REPRESENTATION_CONTEXT ( 3 ) GLOBAL_UNCERTAINTY_ASSIGNED_CONTEXT ( ( #58 ) ) GLOBAL_UNIT_ASSIGNED_CONTEXT ( ( #174, #4, #98 ) ) REPRESENTATION_CONTEXT ( 'NONE', 'WORKASPACE' ) );
#95 = DIRECTION ( 'NONE',  ( 0.0000000000000000000, 0.0000000000000000000, 1.000000000000000000 ) ) ;
#96 = ORIENTED_EDGE ( 'NONE', *, *, #128, .T. ) ;
#97 = LINE ( 'NONE', #160, #162 ) ;
#98 =( NAMED_UNIT ( * ) SI_UNIT ( $, .STERADIAN. ) SOLID_ANGLE_UNIT ( ) );
#99 = FILL_AREA_STYLE ('',( #5 ) ) ;
#100 = CARTESIAN_POINT ( 'NONE',  ( 212.7444857061724100, 4.506726093844136500, 0.0000000000000000000 ) ) ;
#101 = DIRECTION ( 'NONE',  ( 0.0000000000000000000, 0.0000000000000000000, 1.000000000000000000 ) ) ;
#102 = DIRECTION ( 'NONE',  ( -1.000000000000000000, -0.0000000000000000000, -0.0000000000000000000 ) ) ;
#103 = ORIENTED_EDGE ( 'NONE', *, *, #117, .T. ) ;
#104 = SURFACE_STYLE_USAGE ( .BOTH. , #6 ) ;
#105 = CARTESIAN_POINT ( 'NONE',  ( 0.0000000000000000000, 0.0000000000000000000, 0.0000000000000000000 ) ) ;
#106 = EDGE_CURVE ( 'NONE', #34, #40, #60, .T. ) ;
#107 = CIRCLE ( 'NONE', #148, 50.60312500000016200 ) ;
#108 = AXIS2_PLACEMENT_3D ( 'NONE', #18, #30, #118 ) ;
#109 =( NAMED_UNIT ( * ) SI_UNIT ( $, .STERADIAN. ) SOLID_ANGLE_UNIT ( ) );
#110 = PRODUCT_DEFINITION_CONTEXT ( 'detailed design', #48, 'design' ) ;
#111 = ORIENTED_EDGE ( 'NONE', *, *, #8, .F. ) ;
#112 = AXIS2_PLACEMENT_3D ( 'NONE', #20, #64, #93 ) ;
#113 = CLOSED_SHELL ( 'NONE', ( #10, #67, #26, #9, #79 ) ) ;
#114 =( NAMED_UNIT ( * ) PLANE_ANGLE_UNIT ( ) SI_UNIT ( $, .RADIAN. ) );
#115 = ORIENTED_EDGE ( 'NONE', *, *, #8, .T. ) ;
#116 = DIRECTION ( 'NONE',  ( -1.000000000000000000, -0.0000000000000000000, -0.0000000000000000000 ) ) ;
#117 = EDGE_CURVE ( 'NONE', #85, #65, #57, .T. ) ;
#118 = DIRECTION ( 'NONE',  ( 0.0000000000000000000, 0.0000000000000000000, 1.000000000000000000 ) ) ;
#119 = PRODUCT_DEFINITION_SHAPE ( 'NONE', 'NONE',  #77 ) ;
#120 = AXIS2_PLACEMENT_3D ( 'NONE', #105, #54, #74 ) ;
#121 = FACE_OUTER_BOUND ( 'NONE', #127, .T. ) ;
#122 = DIRECTION ( 'NONE',  ( 0.0000000000000000000, 1.000000000000000000, 0.0000000000000000000 ) ) ;
#123 = MANIFOLD_SOLID_BREP ( 'Ðý×ª1', #113 ) ;
#124 = DIRECTION ( 'NONE',  ( -1.000000000000000000, -0.0000000000000000000, -0.0000000000000000000 ) ) ;
#125 = EDGE_LOOP ( 'NONE', ( #178, #59, #111, #133 ) ) ;
#126 = AXIS2_PLACEMENT_3D ( 'NONE', #89, #102, #156 ) ;
#127 = EDGE_LOOP ( 'NONE', ( #37, #16, #143, #69 ) ) ;
#128 = EDGE_CURVE ( 'NONE', #65, #85, #28, .T. ) ;
#129 = AXIS2_PLACEMENT_3D ( 'NONE', #181, #92, #53 ) ;
#130 = DIRECTION ( 'NONE',  ( -1.000000000000000000, -0.0000000000000000000, -0.0000000000000000000 ) ) ;
#131 = SURFACE_STYLE_FILL_AREA ( #182 ) ;
#132 = COLOUR_RGB ( '',1.000000000000000000, 1.000000000000000000, 1.000000000000000000 ) ;
#133 = ORIENTED_EDGE ( 'NONE', *, *, #180, .F. ) ;
#134 = CARTESIAN_POINT ( 'NONE',  ( 212.7444857061724100, 4.506726093844137400, -6.350000000000001400 ) ) ;
#135 = AXIS2_PLACEMENT_3D ( 'NONE', #38, #183, #122 ) ;
#136 =( NAMED_UNIT ( * ) SI_UNIT ( $, .STERADIAN. ) SOLID_ANGLE_UNIT ( ) );
#137 = DIRECTION ( 'NONE',  ( 0.0000000000000000000, 0.0000000000000000000, -1.000000000000000000 ) ) ;
#138 = CARTESIAN_POINT ( 'NONE',  ( 212.7444857061724100, -1.843273906155864300, -7.776507174585643800E-016 ) ) ;
#139 = ORIENTED_EDGE ( 'NONE', *, *, #158, .F. ) ;
#140 = DIRECTION ( 'NONE',  ( 0.0000000000000000000, 1.000000000000000000, 1.224646799147353200E-016 ) ) ;
#141 = EDGE_CURVE ( 'NONE', #73, #85, #83, .T. ) ;
#142 = CIRCLE ( 'NONE', #179, 6.350000000000001400 ) ;
#143 = ORIENTED_EDGE ( 'NONE', *, *, #19, .F. ) ;
#144 =( GEOMETRIC_REPRESENTATION_CONTEXT ( 3 ) GLOBAL_UNCERTAINTY_ASSIGNED_CONTEXT ( ( #150 ) ) GLOBAL_UNIT_ASSIGNED_CONTEXT ( ( #68, #114, #109 ) ) REPRESENTATION_CONTEXT ( 'NONE', 'WORKASPACE' ) );
#145 = FACE_OUTER_BOUND ( 'NONE', #147, .T. ) ;
#146 = EDGE_LOOP ( 'NONE', ( #139, #115, #27, #157, #55 ) ) ;
#147 = EDGE_LOOP ( 'NONE', ( #11, #1, #155, #82, #42 ) ) ;
#148 = AXIS2_PLACEMENT_3D ( 'NONE', #41, #7, #78 ) ;
#149 = PRODUCT_RELATED_PRODUCT_CATEGORY ( 'part', '', ( #186 ) ) ;
#150 = UNCERTAINTY_MEASURE_WITH_UNIT (LENGTH_MEASURE( 1.000000000000000100E-005 ), #68, 'distance_accuracy_value', 'NONE');
#151 = FILL_AREA_STYLE_COLOUR ( '', #47 ) ;
#152 = DIRECTION ( 'NONE',  ( 0.0000000000000000000, 1.224646799147353200E-016, -1.000000000000000000 ) ) ;
#153 = CARTESIAN_POINT ( 'NONE',  ( 213.1444857061723900, 4.506726093844099200, 0.0000000000000000000 ) ) ;
#154 = AXIS2_PLACEMENT_3D ( 'NONE', #84, #164, #86 ) ;
#155 = ORIENTED_EDGE ( 'NONE', *, *, #117, .F. ) ;
#156 = DIRECTION ( 'NONE',  ( 0.0000000000000000000, 0.0000000000000000000, 1.000000000000000000 ) ) ;
#157 = ORIENTED_EDGE ( 'NONE', *, *, #141, .T. ) ;
#158 = EDGE_CURVE ( 'NONE', #169, #65, #97, .T. ) ;
#159 = PRESENTATION_LAYER_ASSIGNMENT (  '', '', ( #22 ) ) ;
#160 = CARTESIAN_POINT ( 'NONE',  ( 208.2753766883342300, 4.506726093844137400, -6.350000000000001400 ) ) ;
#161 = APPLICATION_PROTOCOL_DEFINITION ( 'draft international standard', 'automotive_design', 1998, #31 ) ;
#162 = VECTOR ( 'NONE', #15, 1000.000000000000000 ) ;
#163 = AXIS2_PLACEMENT_3D ( 'NONE', #100, #32, #61 ) ;
#164 = DIRECTION ( 'NONE',  ( -1.000000000000000000, -0.0000000000000000000, -0.0000000000000000000 ) ) ;
#165 = PRESENTATION_STYLE_ASSIGNMENT (( #104 ) ) ;
#166 = APPLICATION_PROTOCOL_DEFINITION ( 'draft international standard', 'automotive_design', 1998, #48 ) ;
#167 = DIRECTION ( 'NONE',  ( 1.000000000000000000, 0.0000000000000000000, 0.0000000000000000000 ) ) ;
#168 = CARTESIAN_POINT ( 'NONE',  ( 162.5413607061722400, 4.506726093844095600, 0.0000000000000000000 ) ) ;
#169 = VERTEX_POINT ( 'NONE', #134 ) ;
#170 = CARTESIAN_POINT ( 'NONE',  ( 212.7444857061724100, 10.85672609384409700, 0.0000000000000000000 ) ) ;
#171 = AXIS2_PLACEMENT_3D ( 'NONE', #168, #152, #140 ) ;
#172 = CIRCLE ( 'NONE', #154, 6.350000000000001400 ) ;
#173 = FACE_OUTER_BOUND ( 'NONE', #46, .T. ) ;
#174 =( LENGTH_UNIT ( ) NAMED_UNIT ( * ) SI_UNIT ( .MILLI., .METRE. ) );
#175 =( LENGTH_UNIT ( ) NAMED_UNIT ( * ) SI_UNIT ( .MILLI., .METRE. ) );
#176 = CARTESIAN_POINT ( 'NONE',  ( 208.2753766883342300, 4.506726093844136500, 6.350000000000001400 ) ) ;
#177 = EDGE_CURVE ( 'NONE', #40, #73, #172, .T. ) ;
#178 = ORIENTED_EDGE ( 'NONE', *, *, #2, .F. ) ;
#179 = AXIS2_PLACEMENT_3D ( 'NONE', #25, #23, #95 ) ;
#180 = EDGE_CURVE ( 'NONE', #3, #169, #24, .T. ) ;
#181 = CARTESIAN_POINT ( 'NONE',  ( 162.5413607061722400, 4.506726093844095600, 0.0000000000000000000 ) ) ;
#182 = FILL_AREA_STYLE ('',( #151 ) ) ;
#183 = DIRECTION ( 'NONE',  ( -0.0000000000000000000, 0.0000000000000000000, -1.000000000000000000 ) ) ;
#184 = AXIS2_PLACEMENT_3D ( 'NONE', #36, #167, #137 ) ;
#185 = FACE_OUTER_BOUND ( 'NONE', #146, .T. ) ;
#186 = PRODUCT ( '100469', '100469', '', ( #72 ) ) ;
ENDSEC;
END-ISO-10303-21;
