ISO-10303-21;
HEADER;
FILE_DESCRIPTION (( 'STEP AP214' ),
    '1' );
FILE_NAME ('100492.STEP',
    '2019-06-12T05:43:08',
    ( '' ),
    ( '' ),
    'SwSTEP 2.0',
    'SolidWorks 2016',
    '' );
FILE_SCHEMA (( 'AUTOMOTIVE_DESIGN' ));
ENDSEC;

DATA;
#1 = DIRECTION ( 'NONE',  ( 0.0000000000000000000, -1.000000000000000000, 0.0000000000000000000 ) ) ;
#2 = CARTESIAN_POINT ( 'NONE',  ( 268.7497620767624100, 118.3502481189887900, 0.0000000000000000000 ) ) ;
#3 = SURFACE_STYLE_FILL_AREA ( #21 ) ;
#4 = CIRCLE ( 'NONE', #139, 12.70000000000001700 ) ;
#5 = APPLICATION_CONTEXT ( 'automotive_design' ) ;
#6 = AXIS2_PLACEMENT_3D ( 'NONE', #63, #11, #12 ) ;
#7 =( LENGTH_UNIT ( ) NAMED_UNIT ( * ) SI_UNIT ( .MILLI., .METRE. ) );
#8 = CIRCLE ( 'NONE', #171, 12.70000000000001700 ) ;
#9 =( LENGTH_UNIT ( ) NAMED_UNIT ( * ) SI_UNIT ( .MILLI., .METRE. ) );
#10 = ORIENTED_EDGE ( 'NONE', *, *, #37, .F. ) ;
#11 = DIRECTION ( 'NONE',  ( -1.000000000000000000, -0.0000000000000000000, -0.0000000000000000000 ) ) ;
#12 = DIRECTION ( 'NONE',  ( 0.0000000000000000000, 0.0000000000000000000, 1.000000000000000000 ) ) ;
#13 = DIRECTION ( 'NONE',  ( 0.0000000000000000000, 0.0000000000000000000, 1.000000000000000000 ) ) ;
#14 = VERTEX_POINT ( 'NONE', #134 ) ;
#15 =( GEOMETRIC_REPRESENTATION_CONTEXT ( 3 ) GLOBAL_UNCERTAINTY_ASSIGNED_CONTEXT ( ( #101 ) ) GLOBAL_UNIT_ASSIGNED_CONTEXT ( ( #9, #120, #34 ) ) REPRESENTATION_CONTEXT ( 'NONE', 'WORKASPACE' ) );
#16 =( LENGTH_UNIT ( ) NAMED_UNIT ( * ) SI_UNIT ( .MILLI., .METRE. ) );
#17 = FILL_AREA_STYLE ('',( #40 ) ) ;
#18 = EDGE_LOOP ( 'NONE', ( #81, #88, #10, #42, #124 ) ) ;
#19 = FACE_OUTER_BOUND ( 'NONE', #83, .T. ) ;
#20 = AXIS2_PLACEMENT_3D ( 'NONE', #128, #150, #89 ) ;
#21 = FILL_AREA_STYLE ('',( #95 ) ) ;
#22 = DIRECTION ( 'NONE',  ( -1.000000000000000000, -0.0000000000000000000, -0.0000000000000000000 ) ) ;
#23 = EDGE_LOOP ( 'NONE', ( #43, #78 ) ) ;
#24 = EDGE_CURVE ( 'NONE', #177, #14, #93, .T. ) ;
#25 = DIRECTION ( 'NONE',  ( 0.0000000000000000000, 0.0000000000000000000, -1.000000000000000000 ) ) ;
#26 = DIRECTION ( 'NONE',  ( 0.0000000000000000000, -1.224646799147353200E-016, 1.000000000000000000 ) ) ;
#27 =( NAMED_UNIT ( * ) SI_UNIT ( $, .STERADIAN. ) SOLID_ANGLE_UNIT ( ) );
#28 = FACE_OUTER_BOUND ( 'NONE', #160, .T. ) ;
#29 = EDGE_CURVE ( 'NONE', #158, #140, #99, .T. ) ;
#30 = SURFACE_SIDE_STYLE ('',( #3 ) ) ;
#31 = ORIENTED_EDGE ( 'NONE', *, *, #104, .T. ) ;
#32 = DIRECTION ( 'NONE',  ( 0.0000000000000000000, 0.0000000000000000000, 1.000000000000000000 ) ) ;
#33 = COLOUR_RGB ( '',1.000000000000000000, 1.000000000000000000, 1.000000000000000000 ) ;
#34 =( NAMED_UNIT ( * ) SI_UNIT ( $, .STERADIAN. ) SOLID_ANGLE_UNIT ( ) );
#35 = DIRECTION ( 'NONE',  ( -1.000000000000000000, -0.0000000000000000000, -0.0000000000000000000 ) ) ;
#36 = COLOUR_RGB ( '',1.000000000000000000, 1.000000000000000000, 1.000000000000000000 ) ;
#37 = EDGE_CURVE ( 'NONE', #154, #119, #110, .T. ) ;
#38 = EDGE_LOOP ( 'NONE', ( #155, #50, #172, #121, #151 ) ) ;
#39 = PRESENTATION_LAYER_ASSIGNMENT (  '', '', ( #111 ) ) ;
#40 = FILL_AREA_STYLE_COLOUR ( '', #33 ) ;
#41 = UNCERTAINTY_MEASURE_WITH_UNIT (LENGTH_MEASURE( 1.000000000000000100E-005 ), #7, 'distance_accuracy_value', 'NONE');
#42 = ORIENTED_EDGE ( 'NONE', *, *, #92, .F. ) ;
#43 = ORIENTED_EDGE ( 'NONE', *, *, #37, .T. ) ;
#44 = AXIS2_PLACEMENT_3D ( 'NONE', #2, #26, #100 ) ;
#45 = SURFACE_STYLE_USAGE ( .BOTH. , #132 ) ;
#46 = PRODUCT_DEFINITION_SHAPE ( 'NONE', 'NONE',  #156 ) ;
#47 = MANIFOLD_SOLID_BREP ( 'Ðý×ª1', #179 ) ;
#48 = AXIS2_PLACEMENT_3D ( 'NONE', #108, #149, #166 ) ;
#49 = AXIS2_PLACEMENT_3D ( 'NONE', #142, #127, #183 ) ;
#50 = ORIENTED_EDGE ( 'NONE', *, *, #118, .T. ) ;
#51 = CARTESIAN_POINT ( 'NONE',  ( 383.6069049339037100, 131.0502481189886900, 1.555301434917129600E-015 ) ) ;
#52 = LINE ( 'NONE', #180, #153 ) ;
#53 =( GEOMETRIC_REPRESENTATION_CONTEXT ( 3 ) GLOBAL_UNCERTAINTY_ASSIGNED_CONTEXT ( ( #74 ) ) GLOBAL_UNIT_ASSIGNED_CONTEXT ( ( #16, #103, #64 ) ) REPRESENTATION_CONTEXT ( 'NONE', 'WORKASPACE' ) );
#54 = EDGE_CURVE ( 'NONE', #119, #154, #4, .T. ) ;
#55 =( NAMED_UNIT ( * ) PLANE_ANGLE_UNIT ( ) SI_UNIT ( $, .RADIAN. ) );
#56 = VERTEX_POINT ( 'NONE', #109 ) ;
#57 = FACE_OUTER_BOUND ( 'NONE', #38, .T. ) ;
#58 = ORIENTED_EDGE ( 'NONE', *, *, #102, .F. ) ;
#59 = FACE_OUTER_BOUND ( 'NONE', #18, .T. ) ;
#60 = DIRECTION ( 'NONE',  ( -1.000000000000000000, -0.0000000000000000000, -0.0000000000000000000 ) ) ;
#61 = PRESENTATION_STYLE_ASSIGNMENT (( #45 ) ) ;
#62 =( GEOMETRIC_REPRESENTATION_CONTEXT ( 3 ) GLOBAL_UNCERTAINTY_ASSIGNED_CONTEXT ( ( #41 ) ) GLOBAL_UNIT_ASSIGNED_CONTEXT ( ( #7, #55, #27 ) ) REPRESENTATION_CONTEXT ( 'NONE', 'WORKASPACE' ) );
#63 = CARTESIAN_POINT ( 'NONE',  ( 383.6069049339037100, 118.3502481189886200, 0.0000000000000000000 ) ) ;
#64 =( NAMED_UNIT ( * ) SI_UNIT ( $, .STERADIAN. ) SOLID_ANGLE_UNIT ( ) );
#65 = DIRECTION ( 'NONE',  ( 0.0000000000000000000, -1.000000000000000000, 0.0000000000000000000 ) ) ;
#66 = AXIS2_PLACEMENT_3D ( 'NONE', #122, #137, #32 ) ;
#67 = PRODUCT_RELATED_PRODUCT_CATEGORY ( 'part', '', ( #97 ) ) ;
#68 = DIRECTION ( 'NONE',  ( -1.000000000000000000, -0.0000000000000000000, -0.0000000000000000000 ) ) ;
#69 = AXIS2_PLACEMENT_3D ( 'NONE', #169, #22, #152 ) ;
#70 = CARTESIAN_POINT ( 'NONE',  ( 380.3069049339037500, 118.3502481189886200, 0.0000000000000000000 ) ) ;
#71 = PRESENTATION_STYLE_ASSIGNMENT (( #163 ) ) ;
#72 = ADVANCED_FACE ( 'NONE', ( #57 ), #170, .T. ) ;
#73 = DIRECTION ( 'NONE',  ( 0.0000000000000000000, 0.0000000000000000000, 1.000000000000000000 ) ) ;
#74 = UNCERTAINTY_MEASURE_WITH_UNIT (LENGTH_MEASURE( 1.000000000000000100E-005 ), #16, 'distance_accuracy_value', 'NONE');
#75 = DIRECTION ( 'NONE',  ( 1.000000000000000000, 0.0000000000000000000, 0.0000000000000000000 ) ) ;
#76 = ORIENTED_EDGE ( 'NONE', *, *, #148, .T. ) ;
#77 = ORIENTED_EDGE ( 'NONE', *, *, #104, .F. ) ;
#78 = ORIENTED_EDGE ( 'NONE', *, *, #54, .T. ) ;
#79 = LINE ( 'NONE', #96, #145 ) ;
#80 = DIRECTION ( 'NONE',  ( 0.0000000000000000000, 0.0000000000000000000, 1.000000000000000000 ) ) ;
#81 = ORIENTED_EDGE ( 'NONE', *, *, #24, .T. ) ;
#82 = CARTESIAN_POINT ( 'NONE',  ( 380.3069049339037500, 118.3502481189886200, -12.70000000000001700 ) ) ;
#83 = EDGE_LOOP ( 'NONE', ( #84, #31, #186, #115 ) ) ;
#84 = ORIENTED_EDGE ( 'NONE', *, *, #148, .F. ) ;
#85 = SURFACE_STYLE_FILL_AREA ( #17 ) ;
#86 = DIRECTION ( 'NONE',  ( 1.000000000000000000, 0.0000000000000000000, 0.0000000000000000000 ) ) ;
#87 = CARTESIAN_POINT ( 'NONE',  ( 268.7497620767624100, 118.3502481189887900, 0.0000000000000000000 ) ) ;
#88 = ORIENTED_EDGE ( 'NONE', *, *, #161, .T. ) ;
#89 = DIRECTION ( 'NONE',  ( -1.000000000000000000, 0.0000000000000000000, 0.0000000000000000000 ) ) ;
#90 = MECHANICAL_DESIGN_GEOMETRIC_PRESENTATION_REPRESENTATION (  '', ( #111 ), #15 ) ;
#91 = APPLICATION_PROTOCOL_DEFINITION ( 'draft international standard', 'automotive_design', 1998, #5 ) ;
#92 = EDGE_CURVE ( 'NONE', #140, #154, #52, .T. ) ;
#93 = CIRCLE ( 'NONE', #6, 12.70000000000001700 ) ;
#94 = DIRECTION ( 'NONE',  ( -1.000000000000000000, -0.0000000000000000000, -0.0000000000000000000 ) ) ;
#95 = FILL_AREA_STYLE_COLOUR ( '', #36 ) ;
#96 = CARTESIAN_POINT ( 'NONE',  ( 374.6770088827465800, 118.3502481189886200, -12.70000000000001700 ) ) ;
#97 = PRODUCT ( '100492', '100492', '', ( #175 ) ) ;
#98 = AXIS2_PLACEMENT_3D ( 'NONE', #87, #123, #65 ) ;
#99 = CIRCLE ( 'NONE', #48, 12.70000000000001700 ) ;
#100 = DIRECTION ( 'NONE',  ( 0.0000000000000000000, -1.000000000000000000, -1.224646799147353200E-016 ) ) ;
#101 = UNCERTAINTY_MEASURE_WITH_UNIT (LENGTH_MEASURE( 1.000000000000000100E-005 ), #9, 'distance_accuracy_value', 'NONE');
#102 = EDGE_CURVE ( 'NONE', #140, #177, #8, .T. ) ;
#103 =( NAMED_UNIT ( * ) PLANE_ANGLE_UNIT ( ) SI_UNIT ( $, .RADIAN. ) );
#104 = EDGE_CURVE ( 'NONE', #56, #158, #105, .T. ) ;
#105 = CIRCLE ( 'NONE', #20, 115.5571428571412700 ) ;
#106 = AXIS2_PLACEMENT_3D ( 'NONE', #147, #94, #107 ) ;
#107 = DIRECTION ( 'NONE',  ( 0.0000000000000000000, 0.0000000000000000000, 1.000000000000000000 ) ) ;
#108 = CARTESIAN_POINT ( 'NONE',  ( 383.6069049339037100, 118.3502481189886200, 0.0000000000000000000 ) ) ;
#109 = CARTESIAN_POINT ( 'NONE',  ( 384.3069049339037500, 118.3502481189887700, 0.0000000000000000000 ) ) ;
#110 = CIRCLE ( 'NONE', #66, 12.70000000000001700 ) ;
#111 = STYLED_ITEM ( 'NONE', ( #71 ), #47 ) ;
#112 = DIRECTION ( 'NONE',  ( 0.0000000000000000000, 0.0000000000000000000, 1.000000000000000000 ) ) ;
#113 = CARTESIAN_POINT ( 'NONE',  ( 380.3069049339037500, 118.3502481189886200, 12.70000000000001700 ) ) ;
#114 = PLANE ( 'NONE',  #135 ) ;
#115 = ORIENTED_EDGE ( 'NONE', *, *, #24, .F. ) ;
#116 = SPHERICAL_SURFACE ( 'NONE', #126, 115.5571428571412700 ) ;
#117 = ADVANCED_FACE ( 'NONE', ( #19 ), #116, .T. ) ;
#118 = EDGE_CURVE ( 'NONE', #14, #158, #184, .T. ) ;
#119 = VERTEX_POINT ( 'NONE', #82 ) ;
#120 =( NAMED_UNIT ( * ) PLANE_ANGLE_UNIT ( ) SI_UNIT ( $, .RADIAN. ) );
#121 = ORIENTED_EDGE ( 'NONE', *, *, #92, .T. ) ;
#122 = CARTESIAN_POINT ( 'NONE',  ( 380.3069049339037500, 118.3502481189886200, 0.0000000000000000000 ) ) ;
#123 = DIRECTION ( 'NONE',  ( 0.0000000000000000000, 0.0000000000000000000, 1.000000000000000000 ) ) ;
#124 = ORIENTED_EDGE ( 'NONE', *, *, #102, .T. ) ;
#125 = CARTESIAN_POINT ( 'NONE',  ( 268.7497620767624100, 118.3502481189887900, 0.0000000000000000000 ) ) ;
#126 = AXIS2_PLACEMENT_3D ( 'NONE', #125, #112, #1 ) ;
#127 = DIRECTION ( 'NONE',  ( -1.000000000000000000, -0.0000000000000000000, -0.0000000000000000000 ) ) ;
#128 = CARTESIAN_POINT ( 'NONE',  ( 268.7497620767624100, 118.3502481189887900, 0.0000000000000000000 ) ) ;
#129 = ADVANCED_BREP_SHAPE_REPRESENTATION ( '100492', ( #47, #167 ), #53 ) ;
#130 = APPLICATION_PROTOCOL_DEFINITION ( 'draft international standard', 'automotive_design', 1998, #133 ) ;
#131 = SPHERICAL_SURFACE ( 'NONE', #98, 115.5571428571412700 ) ;
#132 = SURFACE_SIDE_STYLE ('',( #85 ) ) ;
#133 = APPLICATION_CONTEXT ( 'automotive_design' ) ;
#134 = CARTESIAN_POINT ( 'NONE',  ( 383.6069049339037100, 118.3502481189886200, -12.70000000000001700 ) ) ;
#135 = AXIS2_PLACEMENT_3D ( 'NONE', #70, #86, #25 ) ;
#136 = DIRECTION ( 'NONE',  ( -1.000000000000000000, -0.0000000000000000000, -0.0000000000000000000 ) ) ;
#137 = DIRECTION ( 'NONE',  ( -1.000000000000000000, -0.0000000000000000000, -0.0000000000000000000 ) ) ;
#138 = PRODUCT_DEFINITION_CONTEXT ( 'detailed design', #5, 'design' ) ;
#139 = AXIS2_PLACEMENT_3D ( 'NONE', #182, #60, #80 ) ;
#140 = VERTEX_POINT ( 'NONE', #157 ) ;
#141 = CARTESIAN_POINT ( 'NONE',  ( 0.0000000000000000000, 0.0000000000000000000, 0.0000000000000000000 ) ) ;
#142 = CARTESIAN_POINT ( 'NONE',  ( 374.6770088827465800, 118.3502481189886200, 0.0000000000000000000 ) ) ;
#143 = CARTESIAN_POINT ( 'NONE',  ( 383.6069049339037100, 118.3502481189886200, 0.0000000000000000000 ) ) ;
#144 = ADVANCED_FACE ( 'NONE', ( #59 ), #165, .T. ) ;
#145 = VECTOR ( 'NONE', #35, 1000.000000000000000 ) ;
#146 = CIRCLE ( 'NONE', #44, 115.5571428571412700 ) ;
#147 = CARTESIAN_POINT ( 'NONE',  ( 374.6770088827465800, 118.3502481189886200, 0.0000000000000000000 ) ) ;
#148 = EDGE_CURVE ( 'NONE', #56, #177, #146, .T. ) ;
#149 = DIRECTION ( 'NONE',  ( -1.000000000000000000, -0.0000000000000000000, -0.0000000000000000000 ) ) ;
#150 = DIRECTION ( 'NONE',  ( 0.0000000000000000000, 0.0000000000000000000, -1.000000000000000000 ) ) ;
#151 = ORIENTED_EDGE ( 'NONE', *, *, #54, .F. ) ;
#152 = DIRECTION ( 'NONE',  ( 0.0000000000000000000, 0.0000000000000000000, 1.000000000000000000 ) ) ;
#153 = VECTOR ( 'NONE', #136, 1000.000000000000000 ) ;
#154 = VERTEX_POINT ( 'NONE', #113 ) ;
#155 = ORIENTED_EDGE ( 'NONE', *, *, #161, .F. ) ;
#156 = PRODUCT_DEFINITION ( 'Î´Öª', '', #159, #138 ) ;
#157 = CARTESIAN_POINT ( 'NONE',  ( 383.6069049339037100, 118.3502481189886200, 12.70000000000001700 ) ) ;
#158 = VERTEX_POINT ( 'NONE', #168 ) ;
#159 = PRODUCT_DEFINITION_FORMATION_WITH_SPECIFIED_SOURCE ( 'ÈÎºÎ', '', #97, .NOT_KNOWN. ) ;
#160 = EDGE_LOOP ( 'NONE', ( #77, #76, #58, #181 ) ) ;
#161 = EDGE_CURVE ( 'NONE', #14, #119, #79, .T. ) ;
#162 = ADVANCED_FACE ( 'NONE', ( #173 ), #114, .F. ) ;
#163 = SURFACE_STYLE_USAGE ( .BOTH. , #30 ) ;
#164 = STYLED_ITEM ( 'NONE', ( #61 ), #129 ) ;
#165 = CYLINDRICAL_SURFACE ( 'NONE', #49, 12.70000000000001700 ) ;
#166 = DIRECTION ( 'NONE',  ( 0.0000000000000000000, 0.0000000000000000000, 1.000000000000000000 ) ) ;
#167 = AXIS2_PLACEMENT_3D ( 'NONE', #141, #73, #75 ) ;
#168 = CARTESIAN_POINT ( 'NONE',  ( 383.6069049339037100, 105.6502481189887000, 0.0000000000000000000 ) ) ;
#169 = CARTESIAN_POINT ( 'NONE',  ( 383.6069049339037100, 118.3502481189886200, 0.0000000000000000000 ) ) ;
#170 = CYLINDRICAL_SURFACE ( 'NONE', #106, 12.70000000000001700 ) ;
#171 = AXIS2_PLACEMENT_3D ( 'NONE', #143, #68, #13 ) ;
#172 = ORIENTED_EDGE ( 'NONE', *, *, #29, .T. ) ;
#173 = FACE_OUTER_BOUND ( 'NONE', #23, .T. ) ;
#174 = PRESENTATION_LAYER_ASSIGNMENT (  '', '', ( #164 ) ) ;
#175 = PRODUCT_CONTEXT ( 'NONE', #133, 'mechanical' ) ;
#176 = SHAPE_DEFINITION_REPRESENTATION ( #46, #129 ) ;
#177 = VERTEX_POINT ( 'NONE', #51 ) ;
#178 = ADVANCED_FACE ( 'NONE', ( #28 ), #131, .T. ) ;
#179 = CLOSED_SHELL ( 'NONE', ( #144, #178, #117, #72, #162 ) ) ;
#180 = CARTESIAN_POINT ( 'NONE',  ( 374.6770088827465800, 118.3502481189886200, 12.70000000000001700 ) ) ;
#181 = ORIENTED_EDGE ( 'NONE', *, *, #29, .F. ) ;
#182 = CARTESIAN_POINT ( 'NONE',  ( 380.3069049339037500, 118.3502481189886200, 0.0000000000000000000 ) ) ;
#183 = DIRECTION ( 'NONE',  ( 0.0000000000000000000, 0.0000000000000000000, 1.000000000000000000 ) ) ;
#184 = CIRCLE ( 'NONE', #69, 12.70000000000001700 ) ;
#185 = MECHANICAL_DESIGN_GEOMETRIC_PRESENTATION_REPRESENTATION (  '', ( #164 ), #62 ) ;
#186 = ORIENTED_EDGE ( 'NONE', *, *, #118, .F. ) ;
ENDSEC;
END-ISO-10303-21;
