ISO-10303-21;
HEADER;
FILE_DESCRIPTION (( 'STEP AP214' ),
    '1' );
FILE_NAME ('100517.STEP',
    '2019-06-13T02:01:52',
    ( '' ),
    ( '' ),
    'SwSTEP 2.0',
    'SolidWorks 2016',
    '' );
FILE_SCHEMA (( 'AUTOMOTIVE_DESIGN' ));
ENDSEC;

DATA;
#1 = CARTESIAN_POINT ( 'NONE',  ( 119.3645554762011600, 65.23355492641219700, 0.0000000000000000000 ) ) ;
#2 = DIRECTION ( 'NONE',  ( 0.0000000000000000000, 0.0000000000000000000, 1.000000000000000000 ) ) ;
#3 = DIRECTION ( 'NONE',  ( -1.000000000000000000, -0.0000000000000000000, -0.0000000000000000000 ) ) ;
#4 = APPLICATION_CONTEXT ( 'automotive_design' ) ;
#5 = AXIS2_PLACEMENT_3D ( 'NONE', #13, #101, #156 ) ;
#6 = PRODUCT_CONTEXT ( 'NONE', #4, 'mechanical' ) ;
#7 = UNCERTAINTY_MEASURE_WITH_UNIT (LENGTH_MEASURE( 1.000000000000000100E-005 ), #52, 'distance_accuracy_value', 'NONE');
#8 = STYLED_ITEM ( 'NONE', ( #158 ), #107 ) ;
#9 = FACE_OUTER_BOUND ( 'NONE', #111, .T. ) ;
#10 = VECTOR ( 'NONE', #28, 1000.000000000000000 ) ;
#11 = VERTEX_POINT ( 'NONE', #103 ) ;
#12 = EDGE_CURVE ( 'NONE', #106, #11, #114, .T. ) ;
#13 = CARTESIAN_POINT ( 'NONE',  ( -82.04794452379231000, 65.23355492641196900, 0.0000000000000000000 ) ) ;
#14 = AXIS2_PLACEMENT_3D ( 'NONE', #1, #120, #136 ) ;
#15 = CARTESIAN_POINT ( 'NONE',  ( 115.7645554762012000, 65.23355492641219700, 0.0000000000000000000 ) ) ;
#16 = ORIENTED_EDGE ( 'NONE', *, *, #181, .F. ) ;
#17 =( NAMED_UNIT ( * ) PLANE_ANGLE_UNIT ( ) SI_UNIT ( $, .RADIAN. ) );
#18 =( GEOMETRIC_REPRESENTATION_CONTEXT ( 3 ) GLOBAL_UNCERTAINTY_ASSIGNED_CONTEXT ( ( #7 ) ) GLOBAL_UNIT_ASSIGNED_CONTEXT ( ( #52, #17, #51 ) ) REPRESENTATION_CONTEXT ( 'NONE', 'WORKASPACE' ) );
#19 =( LENGTH_UNIT ( ) NAMED_UNIT ( * ) SI_UNIT ( .MILLI., .METRE. ) );
#20 = DIRECTION ( 'NONE',  ( -1.000000000000000000, -0.0000000000000000000, -0.0000000000000000000 ) ) ;
#21 = CARTESIAN_POINT ( 'NONE',  ( -82.04794452379231000, 65.23355492641196900, 0.0000000000000000000 ) ) ;
#22 = CIRCLE ( 'NONE', #59, 12.70000000000000300 ) ;
#23 = ORIENTED_EDGE ( 'NONE', *, *, #161, .F. ) ;
#24 = AXIS2_PLACEMENT_3D ( 'NONE', #104, #36, #49 ) ;
#25 = MECHANICAL_DESIGN_GEOMETRIC_PRESENTATION_REPRESENTATION (  '', ( #116 ), #63 ) ;
#26 = LINE ( 'NONE', #74, #10 ) ;
#27 = VERTEX_POINT ( 'NONE', #146 ) ;
#28 = DIRECTION ( 'NONE',  ( -1.000000000000000000, -0.0000000000000000000, -0.0000000000000000000 ) ) ;
#29 = DIRECTION ( 'NONE',  ( -1.000000000000000000, -0.0000000000000000000, -0.0000000000000000000 ) ) ;
#30 = ORIENTED_EDGE ( 'NONE', *, *, #92, .T. ) ;
#31 = DIRECTION ( 'NONE',  ( 0.0000000000000000000, 0.0000000000000000000, 1.000000000000000000 ) ) ;
#32 = CARTESIAN_POINT ( 'NONE',  ( -82.04794452379231000, 65.23355492641196900, 0.0000000000000000000 ) ) ;
#33 = DIRECTION ( 'NONE',  ( -0.0000000000000000000, 0.0000000000000000000, 1.000000000000000000 ) ) ;
#34 = DIRECTION ( 'NONE',  ( 1.000000000000000000, 0.0000000000000000000, 0.0000000000000000000 ) ) ;
#35 = EDGE_LOOP ( 'NONE', ( #60, #121, #165, #180, #132 ) ) ;
#36 = DIRECTION ( 'NONE',  ( -1.000000000000000000, -0.0000000000000000000, -0.0000000000000000000 ) ) ;
#37 =( NAMED_UNIT ( * ) SI_UNIT ( $, .STERADIAN. ) SOLID_ANGLE_UNIT ( ) );
#38 = AXIS2_PLACEMENT_3D ( 'NONE', #150, #69, #157 ) ;
#39 = FILL_AREA_STYLE_COLOUR ( '', #167 ) ;
#40 = ADVANCED_FACE ( 'NONE', ( #151 ), #133, .T. ) ;
#41 = APPLICATION_PROTOCOL_DEFINITION ( 'draft international standard', 'automotive_design', 1998, #143 ) ;
#42 = CIRCLE ( 'NONE', #24, 12.70000000000000300 ) ;
#43 = PRESENTATION_LAYER_ASSIGNMENT (  '', '', ( #116 ) ) ;
#44 = ORIENTED_EDGE ( 'NONE', *, *, #109, .T. ) ;
#45 = EDGE_CURVE ( 'NONE', #108, #106, #85, .T. ) ;
#46 = VECTOR ( 'NONE', #153, 1000.000000000000000 ) ;
#47 = EDGE_CURVE ( 'NONE', #137, #164, #68, .T. ) ;
#48 = AXIS2_PLACEMENT_3D ( 'NONE', #66, #89, #88 ) ;
#49 = DIRECTION ( 'NONE',  ( 0.0000000000000000000, 0.0000000000000000000, 1.000000000000000000 ) ) ;
#50 = AXIS2_PLACEMENT_3D ( 'NONE', #145, #29, #31 ) ;
#51 =( NAMED_UNIT ( * ) SI_UNIT ( $, .STERADIAN. ) SOLID_ANGLE_UNIT ( ) );
#52 =( LENGTH_UNIT ( ) NAMED_UNIT ( * ) SI_UNIT ( .MILLI., .METRE. ) );
#53 = SURFACE_STYLE_FILL_AREA ( #79 ) ;
#54 = ORIENTED_EDGE ( 'NONE', *, *, #45, .F. ) ;
#55 = EDGE_CURVE ( 'NONE', #11, #137, #131, .T. ) ;
#56 = ADVANCED_FACE ( 'NONE', ( #9 ), #81, .T. ) ;
#57 = EDGE_CURVE ( 'NONE', #27, #164, #26, .T. ) ;
#58 = PRESENTATION_STYLE_ASSIGNMENT (( #173 ) ) ;
#59 = AXIS2_PLACEMENT_3D ( 'NONE', #124, #3, #2 ) ;
#60 = ORIENTED_EDGE ( 'NONE', *, *, #57, .F. ) ;
#61 = EDGE_LOOP ( 'NONE', ( #44, #169, #86, #177, #30 ) ) ;
#62 = EDGE_LOOP ( 'NONE', ( #23, #72, #16, #184 ) ) ;
#63 =( GEOMETRIC_REPRESENTATION_CONTEXT ( 3 ) GLOBAL_UNCERTAINTY_ASSIGNED_CONTEXT ( ( #94 ) ) GLOBAL_UNIT_ASSIGNED_CONTEXT ( ( #19, #162, #78 ) ) REPRESENTATION_CONTEXT ( 'NONE', 'WORKASPACE' ) );
#64 = UNCERTAINTY_MEASURE_WITH_UNIT (LENGTH_MEASURE( 1.000000000000000100E-005 ), #140, 'distance_accuracy_value', 'NONE');
#65 = ORIENTED_EDGE ( 'NONE', *, *, #12, .F. ) ;
#66 = CARTESIAN_POINT ( 'NONE',  ( 115.7645554762012000, 65.23355492641219700, 0.0000000000000000000 ) ) ;
#67 = SURFACE_SIDE_STYLE ('',( #53 ) ) ;
#68 = CIRCLE ( 'NONE', #127, 12.70000000000000300 ) ;
#69 = DIRECTION ( 'NONE',  ( -1.000000000000000000, -0.0000000000000000000, -0.0000000000000000000 ) ) ;
#70 = APPLICATION_PROTOCOL_DEFINITION ( 'draft international standard', 'automotive_design', 1998, #4 ) ;
#71 = AXIS2_PLACEMENT_3D ( 'NONE', #73, #185, #138 ) ;
#72 = ORIENTED_EDGE ( 'NONE', *, *, #45, .T. ) ;
#73 = CARTESIAN_POINT ( 'NONE',  ( -82.04794452379231000, 65.23355492641196900, 0.0000000000000000000 ) ) ;
#74 = CARTESIAN_POINT ( 'NONE',  ( 110.1653732284884500, 65.23355492641219700, -12.70000000000000300 ) ) ;
#75 = SURFACE_SIDE_STYLE ('',( #90 ) ) ;
#76 = DIRECTION ( 'NONE',  ( 0.0000000000000000000, 0.0000000000000000000, -1.000000000000000000 ) ) ;
#77 = SURFACE_STYLE_USAGE ( .BOTH. , #67 ) ;
#78 =( NAMED_UNIT ( * ) SI_UNIT ( $, .STERADIAN. ) SOLID_ANGLE_UNIT ( ) );
#79 = FILL_AREA_STYLE ('',( #102 ) ) ;
#80 = PRODUCT_DEFINITION_SHAPE ( 'NONE', 'NONE',  #163 ) ;
#81 = SPHERICAL_SURFACE ( 'NONE', #96, 201.8124999999935200 ) ;
#82 = VERTEX_POINT ( 'NONE', #84 ) ;
#83 = AXIS2_PLACEMENT_3D ( 'NONE', #139, #122, #34 ) ;
#84 = CARTESIAN_POINT ( 'NONE',  ( 119.3645554762011600, 77.93355492641224200, 0.0000000000000000000 ) ) ;
#85 = CIRCLE ( 'NONE', #71, 201.8124999999935200 ) ;
#86 = ORIENTED_EDGE ( 'NONE', *, *, #47, .F. ) ;
#87 = CARTESIAN_POINT ( 'NONE',  ( 115.7645554762012000, 65.23355492641219700, 12.70000000000000300 ) ) ;
#88 = DIRECTION ( 'NONE',  ( 0.0000000000000000000, 0.0000000000000000000, 1.000000000000000000 ) ) ;
#89 = DIRECTION ( 'NONE',  ( -1.000000000000000000, -0.0000000000000000000, -0.0000000000000000000 ) ) ;
#90 = SURFACE_STYLE_FILL_AREA ( #147 ) ;
#91 = ORIENTED_EDGE ( 'NONE', *, *, #175, .T. ) ;
#92 = EDGE_CURVE ( 'NONE', #11, #82, #179, .T. ) ;
#93 = CARTESIAN_POINT ( 'NONE',  ( 110.1653732284884500, 65.23355492641219700, 0.0000000000000000000 ) ) ;
#94 = UNCERTAINTY_MEASURE_WITH_UNIT (LENGTH_MEASURE( 1.000000000000000100E-005 ), #19, 'distance_accuracy_value', 'NONE');
#95 = ORIENTED_EDGE ( 'NONE', *, *, #161, .T. ) ;
#96 = AXIS2_PLACEMENT_3D ( 'NONE', #32, #119, #170 ) ;
#97 = CYLINDRICAL_SURFACE ( 'NONE', #38, 12.70000000000000300 ) ;
#98 = COLOUR_RGB ( '',1.000000000000000000, 1.000000000000000000, 1.000000000000000000 ) ;
#99 = CLOSED_SHELL ( 'NONE', ( #129, #40, #56, #126, #125 ) ) ;
#100 = FACE_OUTER_BOUND ( 'NONE', #61, .T. ) ;
#101 = DIRECTION ( 'NONE',  ( -0.0000000000000000000, 0.0000000000000000000, -1.000000000000000000 ) ) ;
#102 = FILL_AREA_STYLE_COLOUR ( '', #98 ) ;
#103 = CARTESIAN_POINT ( 'NONE',  ( 119.3645554762011600, 65.23355492641219700, 12.70000000000000300 ) ) ;
#104 = CARTESIAN_POINT ( 'NONE',  ( 119.3645554762011600, 65.23355492641219700, 0.0000000000000000000 ) ) ;
#105 = PRESENTATION_LAYER_ASSIGNMENT (  '', '', ( #8 ) ) ;
#106 = VERTEX_POINT ( 'NONE', #135 ) ;
#107 = MANIFOLD_SOLID_BREP ( 'Ðý×ª1', #99 ) ;
#108 = VERTEX_POINT ( 'NONE', #155 ) ;
#109 = EDGE_CURVE ( 'NONE', #82, #27, #42, .T. ) ;
#110 = CIRCLE ( 'NONE', #174, 201.8124999999935200 ) ;
#111 = EDGE_LOOP ( 'NONE', ( #54, #95, #115, #65 ) ) ;
#112 = PRODUCT_DEFINITION_CONTEXT ( 'detailed design', #143, 'design' ) ;
#113 = PRODUCT ( '100517', '100517', '', ( #6 ) ) ;
#114 = CIRCLE ( 'NONE', #50, 12.70000000000000300 ) ;
#115 = ORIENTED_EDGE ( 'NONE', *, *, #92, .F. ) ;
#116 = STYLED_ITEM ( 'NONE', ( #58 ), #130 ) ;
#117 = CARTESIAN_POINT ( 'NONE',  ( 110.1653732284884500, 65.23355492641219700, 12.70000000000000300 ) ) ;
#118 = CIRCLE ( 'NONE', #48, 12.70000000000000300 ) ;
#119 = DIRECTION ( 'NONE',  ( -0.0000000000000000000, 0.0000000000000000000, -1.000000000000000000 ) ) ;
#120 = DIRECTION ( 'NONE',  ( -1.000000000000000000, -0.0000000000000000000, -0.0000000000000000000 ) ) ;
#121 = ORIENTED_EDGE ( 'NONE', *, *, #181, .T. ) ;
#122 = DIRECTION ( 'NONE',  ( 0.0000000000000000000, 0.0000000000000000000, 1.000000000000000000 ) ) ;
#123 =( NAMED_UNIT ( * ) PLANE_ANGLE_UNIT ( ) SI_UNIT ( $, .RADIAN. ) );
#124 = CARTESIAN_POINT ( 'NONE',  ( 119.3645554762011600, 65.23355492641219700, 0.0000000000000000000 ) ) ;
#125 = ADVANCED_FACE ( 'NONE', ( #183 ), #159, .F. ) ;
#126 = ADVANCED_FACE ( 'NONE', ( #144 ), #171, .T. ) ;
#127 = AXIS2_PLACEMENT_3D ( 'NONE', #15, #134, #154 ) ;
#128 = EDGE_LOOP ( 'NONE', ( #168, #91 ) ) ;
#129 = ADVANCED_FACE ( 'NONE', ( #100 ), #97, .T. ) ;
#130 = ADVANCED_BREP_SHAPE_REPRESENTATION ( '100517', ( #107, #83 ), #18 ) ;
#131 = LINE ( 'NONE', #117, #46 ) ;
#132 = ORIENTED_EDGE ( 'NONE', *, *, #175, .F. ) ;
#133 = SPHERICAL_SURFACE ( 'NONE', #5, 201.8124999999935200 ) ;
#134 = DIRECTION ( 'NONE',  ( -1.000000000000000000, -0.0000000000000000000, -0.0000000000000000000 ) ) ;
#135 = CARTESIAN_POINT ( 'NONE',  ( 119.3645554762011600, 52.53355492641191700, -1.555301434917145100E-015 ) ) ;
#136 = DIRECTION ( 'NONE',  ( 0.0000000000000000000, 0.0000000000000000000, 1.000000000000000000 ) ) ;
#137 = VERTEX_POINT ( 'NONE', #87 ) ;
#138 = DIRECTION ( 'NONE',  ( 0.0000000000000000000, 1.000000000000000000, 1.224646799147353200E-016 ) ) ;
#139 = CARTESIAN_POINT ( 'NONE',  ( 0.0000000000000000000, 0.0000000000000000000, 0.0000000000000000000 ) ) ;
#140 =( LENGTH_UNIT ( ) NAMED_UNIT ( * ) SI_UNIT ( .MILLI., .METRE. ) );
#141 = AXIS2_PLACEMENT_3D ( 'NONE', #93, #20, #142 ) ;
#142 = DIRECTION ( 'NONE',  ( 0.0000000000000000000, 0.0000000000000000000, 1.000000000000000000 ) ) ;
#143 = APPLICATION_CONTEXT ( 'automotive_design' ) ;
#144 = FACE_OUTER_BOUND ( 'NONE', #35, .T. ) ;
#145 = CARTESIAN_POINT ( 'NONE',  ( 119.3645554762011600, 65.23355492641219700, 0.0000000000000000000 ) ) ;
#146 = CARTESIAN_POINT ( 'NONE',  ( 119.3645554762011600, 65.23355492641219700, -12.70000000000000300 ) ) ;
#147 = FILL_AREA_STYLE ('',( #39 ) ) ;
#148 = CARTESIAN_POINT ( 'NONE',  ( 115.7645554762012000, 65.23355492641219700, -12.70000000000000300 ) ) ;
#149 = PRODUCT_DEFINITION_FORMATION_WITH_SPECIFIED_SOURCE ( 'ÈÎºÎ', '', #113, .NOT_KNOWN. ) ;
#150 = CARTESIAN_POINT ( 'NONE',  ( 110.1653732284884500, 65.23355492641219700, 0.0000000000000000000 ) ) ;
#151 = FACE_OUTER_BOUND ( 'NONE', #62, .T. ) ;
#152 =( GEOMETRIC_REPRESENTATION_CONTEXT ( 3 ) GLOBAL_UNCERTAINTY_ASSIGNED_CONTEXT ( ( #64 ) ) GLOBAL_UNIT_ASSIGNED_CONTEXT ( ( #140, #123, #37 ) ) REPRESENTATION_CONTEXT ( 'NONE', 'WORKASPACE' ) );
#153 = DIRECTION ( 'NONE',  ( -1.000000000000000000, -0.0000000000000000000, -0.0000000000000000000 ) ) ;
#154 = DIRECTION ( 'NONE',  ( 0.0000000000000000000, 0.0000000000000000000, 1.000000000000000000 ) ) ;
#155 = CARTESIAN_POINT ( 'NONE',  ( 119.7645554762012000, 65.23355492641198300, 0.0000000000000000000 ) ) ;
#156 = DIRECTION ( 'NONE',  ( 0.0000000000000000000, 1.000000000000000000, 0.0000000000000000000 ) ) ;
#157 = DIRECTION ( 'NONE',  ( 0.0000000000000000000, 0.0000000000000000000, 1.000000000000000000 ) ) ;
#158 = PRESENTATION_STYLE_ASSIGNMENT (( #77 ) ) ;
#159 = PLANE ( 'NONE',  #182 ) ;
#160 = DIRECTION ( 'NONE',  ( 1.000000000000000000, 0.0000000000000000000, 0.0000000000000000000 ) ) ;
#161 = EDGE_CURVE ( 'NONE', #108, #82, #110, .T. ) ;
#162 =( NAMED_UNIT ( * ) PLANE_ANGLE_UNIT ( ) SI_UNIT ( $, .RADIAN. ) );
#163 = PRODUCT_DEFINITION ( 'Î´Öª', '', #149, #112 ) ;
#164 = VERTEX_POINT ( 'NONE', #148 ) ;
#165 = ORIENTED_EDGE ( 'NONE', *, *, #12, .T. ) ;
#166 = MECHANICAL_DESIGN_GEOMETRIC_PRESENTATION_REPRESENTATION (  '', ( #8 ), #152 ) ;
#167 = COLOUR_RGB ( '',1.000000000000000000, 1.000000000000000000, 1.000000000000000000 ) ;
#168 = ORIENTED_EDGE ( 'NONE', *, *, #47, .T. ) ;
#169 = ORIENTED_EDGE ( 'NONE', *, *, #57, .T. ) ;
#170 = DIRECTION ( 'NONE',  ( 0.0000000000000000000, 1.000000000000000000, 0.0000000000000000000 ) ) ;
#171 = CYLINDRICAL_SURFACE ( 'NONE', #141, 12.70000000000000300 ) ;
#172 = PRODUCT_RELATED_PRODUCT_CATEGORY ( 'part', '', ( #113 ) ) ;
#173 = SURFACE_STYLE_USAGE ( .BOTH. , #75 ) ;
#174 = AXIS2_PLACEMENT_3D ( 'NONE', #21, #33, #160 ) ;
#175 = EDGE_CURVE ( 'NONE', #164, #137, #118, .T. ) ;
#176 = CARTESIAN_POINT ( 'NONE',  ( 115.7645554762012000, 65.23355492641219700, 0.0000000000000000000 ) ) ;
#177 = ORIENTED_EDGE ( 'NONE', *, *, #55, .F. ) ;
#178 = DIRECTION ( 'NONE',  ( 1.000000000000000000, 0.0000000000000000000, 0.0000000000000000000 ) ) ;
#179 = CIRCLE ( 'NONE', #14, 12.70000000000000300 ) ;
#180 = ORIENTED_EDGE ( 'NONE', *, *, #55, .T. ) ;
#181 = EDGE_CURVE ( 'NONE', #27, #106, #22, .T. ) ;
#182 = AXIS2_PLACEMENT_3D ( 'NONE', #176, #178, #76 ) ;
#183 = FACE_OUTER_BOUND ( 'NONE', #128, .T. ) ;
#184 = ORIENTED_EDGE ( 'NONE', *, *, #109, .F. ) ;
#185 = DIRECTION ( 'NONE',  ( 0.0000000000000000000, 1.224646799147353200E-016, -1.000000000000000000 ) ) ;
#186 = SHAPE_DEFINITION_REPRESENTATION ( #80, #130 ) ;
ENDSEC;
END-ISO-10303-21;
