ISO-10303-21;
HEADER;
FILE_DESCRIPTION (( 'STEP AP214' ),
    '1' );
FILE_NAME ('100513.STEP',
    '2019-06-13T01:44:12',
    ( '' ),
    ( '' ),
    'SwSTEP 2.0',
    'SolidWorks 2016',
    '' );
FILE_SCHEMA (( 'AUTOMOTIVE_DESIGN' ));
ENDSEC;

DATA;
#1 =( LENGTH_UNIT ( ) NAMED_UNIT ( * ) SI_UNIT ( .MILLI., .METRE. ) );
#2 = ORIENTED_EDGE ( 'NONE', *, *, #3, .T. ) ;
#3 = EDGE_CURVE ( 'NONE', #95, #25, #101, .T. ) ;
#4 = ORIENTED_EDGE ( 'NONE', *, *, #23, .T. ) ;
#5 =( NAMED_UNIT ( * ) SI_UNIT ( $, .STERADIAN. ) SOLID_ANGLE_UNIT ( ) );
#6 = EDGE_CURVE ( 'NONE', #183, #99, #138, .T. ) ;
#7 = CIRCLE ( 'NONE', #35, 6.349999999999997900 ) ;
#8 = ADVANCED_BREP_SHAPE_REPRESENTATION ( '100513', ( #24, #97 ), #180 ) ;
#9 = AXIS2_PLACEMENT_3D ( 'NONE', #106, #61, #21 ) ;
#10 = CIRCLE ( 'NONE', #66, 6.349999999999997900 ) ;
#11 = ORIENTED_EDGE ( 'NONE', *, *, #37, .F. ) ;
#12 = EDGE_CURVE ( 'NONE', #99, #30, #82, .T. ) ;
#13 = SURFACE_STYLE_USAGE ( .BOTH. , #29 ) ;
#14 = EDGE_LOOP ( 'NONE', ( #11, #150, #40, #39 ) ) ;
#15 = CARTESIAN_POINT ( 'NONE',  ( -18.75159937477296900, 26.09342197056487900, 0.0000000000000000000 ) ) ;
#16 = CARTESIAN_POINT ( 'NONE',  ( 0.0000000000000000000, 0.0000000000000000000, 0.0000000000000000000 ) ) ;
#17 = APPLICATION_PROTOCOL_DEFINITION ( 'draft international standard', 'automotive_design', 1998, #158 ) ;
#18 = PRODUCT_CONTEXT ( 'NONE', #107, 'mechanical' ) ;
#19 = CYLINDRICAL_SURFACE ( 'NONE', #112, 6.349999999999997900 ) ;
#20 = ORIENTED_EDGE ( 'NONE', *, *, #167, .F. ) ;
#21 = DIRECTION ( 'NONE',  ( 0.0000000000000000000, 0.0000000000000000000, 1.000000000000000000 ) ) ;
#22 = ORIENTED_EDGE ( 'NONE', *, *, #86, .F. ) ;
#23 = EDGE_CURVE ( 'NONE', #134, #99, #10, .T. ) ;
#24 = MANIFOLD_SOLID_BREP ( 'Ðý×ª1', #111 ) ;
#25 = VERTEX_POINT ( 'NONE', #75 ) ;
#26 = FACE_OUTER_BOUND ( 'NONE', #115, .T. ) ;
#27 = ADVANCED_FACE ( 'NONE', ( #38 ), #19, .T. ) ;
#28 = CARTESIAN_POINT ( 'NONE',  ( 44.06614929139537700, 26.09342197056487900, 0.0000000000000000000 ) ) ;
#29 = SURFACE_SIDE_STYLE ('',( #80 ) ) ;
#30 = VERTEX_POINT ( 'NONE', #156 ) ;
#31 = CARTESIAN_POINT ( 'NONE',  ( 48.30256729189368800, 26.09342197056487900, 0.0000000000000000000 ) ) ;
#32 = CARTESIAN_POINT ( 'NONE',  ( 48.30256729189368800, 26.09342197056487900, 0.0000000000000000000 ) ) ;
#33 = ORIENTED_EDGE ( 'NONE', *, *, #6, .F. ) ;
#34 =( NAMED_UNIT ( * ) SI_UNIT ( $, .STERADIAN. ) SOLID_ANGLE_UNIT ( ) );
#35 = AXIS2_PLACEMENT_3D ( 'NONE', #32, #93, #135 ) ;
#36 = ORIENTED_EDGE ( 'NONE', *, *, #151, .T. ) ;
#37 = EDGE_CURVE ( 'NONE', #183, #108, #116, .T. ) ;
#38 = FACE_OUTER_BOUND ( 'NONE', #163, .T. ) ;
#39 = ORIENTED_EDGE ( 'NONE', *, *, #162, .F. ) ;
#40 = ORIENTED_EDGE ( 'NONE', *, *, #23, .F. ) ;
#41 = AXIS2_PLACEMENT_3D ( 'NONE', #79, #49, #170 ) ;
#42 = DIRECTION ( 'NONE',  ( 1.000000000000000000, 0.0000000000000000000, 0.0000000000000000000 ) ) ;
#43 = ORIENTED_EDGE ( 'NONE', *, *, #178, .T. ) ;
#44 = CARTESIAN_POINT ( 'NONE',  ( 48.30256729189369500, 19.74342197056483500, -7.776507174585750300E-016 ) ) ;
#45 = COLOUR_RGB ( '',1.000000000000000000, 1.000000000000000000, 1.000000000000000000 ) ;
#46 = FILL_AREA_STYLE ('',( #103 ) ) ;
#47 = DIRECTION ( 'NONE',  ( -0.0000000000000000000, 0.0000000000000000000, 1.000000000000000000 ) ) ;
#48 = UNCERTAINTY_MEASURE_WITH_UNIT (LENGTH_MEASURE( 1.000000000000000100E-005 ), #90, 'distance_accuracy_value', 'NONE');
#49 = DIRECTION ( 'NONE',  ( -1.000000000000000000, -0.0000000000000000000, -0.0000000000000000000 ) ) ;
#50 = DIRECTION ( 'NONE',  ( 0.0000000000000000000, 1.000000000000000000, 0.0000000000000000000 ) ) ;
#51 = PRODUCT_RELATED_PRODUCT_CATEGORY ( 'part', '', ( #110 ) ) ;
#52 = LINE ( 'NONE', #57, #87 ) ;
#53 = AXIS2_PLACEMENT_3D ( 'NONE', #125, #119, #153 ) ;
#54 = CARTESIAN_POINT ( 'NONE',  ( -18.75159937477296900, 26.09342197056487900, 0.0000000000000000000 ) ) ;
#55 = CARTESIAN_POINT ( 'NONE',  ( -18.75159937477296900, 26.09342197056487900, 0.0000000000000000000 ) ) ;
#56 = ADVANCED_FACE ( 'NONE', ( #98 ), #118, .F. ) ;
#57 = CARTESIAN_POINT ( 'NONE',  ( 44.06614929139537700, 26.09342197056487900, -6.349999999999997900 ) ) ;
#58 = CARTESIAN_POINT ( 'NONE',  ( 48.30256729189368800, 26.09342197056487900, 6.349999999999997900 ) ) ;
#59 = DIRECTION ( 'NONE',  ( -1.000000000000000000, -0.0000000000000000000, -0.0000000000000000000 ) ) ;
#60 = CARTESIAN_POINT ( 'NONE',  ( 48.60256729189370600, 26.09342197056488300, 0.0000000000000000000 ) ) ;
#61 = DIRECTION ( 'NONE',  ( -1.000000000000000000, -0.0000000000000000000, -0.0000000000000000000 ) ) ;
#62 = APPLICATION_PROTOCOL_DEFINITION ( 'draft international standard', 'automotive_design', 1998, #107 ) ;
#63 = STYLED_ITEM ( 'NONE', ( #175 ), #8 ) ;
#64 = PRESENTATION_STYLE_ASSIGNMENT (( #13 ) ) ;
#65 = ORIENTED_EDGE ( 'NONE', *, *, #162, .T. ) ;
#66 = AXIS2_PLACEMENT_3D ( 'NONE', #31, #105, #113 ) ;
#67 = EDGE_LOOP ( 'NONE', ( #181, #69, #20, #136, #4 ) ) ;
#68 = EDGE_LOOP ( 'NONE', ( #131, #2 ) ) ;
#69 = ORIENTED_EDGE ( 'NONE', *, *, #86, .T. ) ;
#70 = ADVANCED_FACE ( 'NONE', ( #164 ), #173, .T. ) ;
#71 = ADVANCED_FACE ( 'NONE', ( #26 ), #186, .T. ) ;
#72 = DIRECTION ( 'NONE',  ( 0.0000000000000000000, 0.0000000000000000000, 1.000000000000000000 ) ) ;
#73 = LINE ( 'NONE', #133, #145 ) ;
#74 = DIRECTION ( 'NONE',  ( 0.0000000000000000000, 0.0000000000000000000, -1.000000000000000000 ) ) ;
#75 = CARTESIAN_POINT ( 'NONE',  ( 46.30256729189369500, 26.09342197056487900, 6.349999999999997900 ) ) ;
#76 =( GEOMETRIC_REPRESENTATION_CONTEXT ( 3 ) GLOBAL_UNCERTAINTY_ASSIGNED_CONTEXT ( ( #177 ) ) GLOBAL_UNIT_ASSIGNED_CONTEXT ( ( #142, #152, #166 ) ) REPRESENTATION_CONTEXT ( 'NONE', 'WORKASPACE' ) );
#77 =( NAMED_UNIT ( * ) PLANE_ANGLE_UNIT ( ) SI_UNIT ( $, .RADIAN. ) );
#78 = MECHANICAL_DESIGN_GEOMETRIC_PRESENTATION_REPRESENTATION (  '', ( #63 ), #84 ) ;
#79 = CARTESIAN_POINT ( 'NONE',  ( 46.30256729189369500, 26.09342197056487900, 0.0000000000000000000 ) ) ;
#80 = SURFACE_STYLE_FILL_AREA ( #46 ) ;
#81 = UNCERTAINTY_MEASURE_WITH_UNIT (LENGTH_MEASURE( 1.000000000000000100E-005 ), #1, 'distance_accuracy_value', 'NONE');
#82 = CIRCLE ( 'NONE', #132, 6.349999999999997900 ) ;
#83 = AXIS2_PLACEMENT_3D ( 'NONE', #130, #114, #155 ) ;
#84 =( GEOMETRIC_REPRESENTATION_CONTEXT ( 3 ) GLOBAL_UNCERTAINTY_ASSIGNED_CONTEXT ( ( #81 ) ) GLOBAL_UNIT_ASSIGNED_CONTEXT ( ( #1, #77, #5 ) ) REPRESENTATION_CONTEXT ( 'NONE', 'WORKASPACE' ) );
#85 = DIRECTION ( 'NONE',  ( -0.0000000000000000000, 0.0000000000000000000, -1.000000000000000000 ) ) ;
#86 = EDGE_CURVE ( 'NONE', #30, #95, #52, .T. ) ;
#87 = VECTOR ( 'NONE', #88, 1000.000000000000000 ) ;
#88 = DIRECTION ( 'NONE',  ( -1.000000000000000000, -0.0000000000000000000, -0.0000000000000000000 ) ) ;
#89 = DIRECTION ( 'NONE',  ( -1.000000000000000000, -0.0000000000000000000, -0.0000000000000000000 ) ) ;
#90 =( LENGTH_UNIT ( ) NAMED_UNIT ( * ) SI_UNIT ( .MILLI., .METRE. ) );
#91 = DIRECTION ( 'NONE',  ( 0.0000000000000000000, 0.0000000000000000000, 1.000000000000000000 ) ) ;
#92 = AXIS2_PLACEMENT_3D ( 'NONE', #15, #85, #128 ) ;
#93 = DIRECTION ( 'NONE',  ( -1.000000000000000000, -0.0000000000000000000, -0.0000000000000000000 ) ) ;
#94 = CIRCLE ( 'NONE', #9, 6.349999999999997900 ) ;
#95 = VERTEX_POINT ( 'NONE', #117 ) ;
#96 = PRESENTATION_LAYER_ASSIGNMENT (  '', '', ( #139 ) ) ;
#97 = AXIS2_PLACEMENT_3D ( 'NONE', #16, #91, #120 ) ;
#98 = FACE_OUTER_BOUND ( 'NONE', #68, .T. ) ;
#99 = VERTEX_POINT ( 'NONE', #129 ) ;
#100 = AXIS2_PLACEMENT_3D ( 'NONE', #28, #59, #157 ) ;
#101 = CIRCLE ( 'NONE', #53, 6.349999999999997900 ) ;
#102 = DIRECTION ( 'NONE',  ( 0.0000000000000000000, 0.0000000000000000000, 1.000000000000000000 ) ) ;
#103 = FILL_AREA_STYLE_COLOUR ( '', #45 ) ;
#104 = ORIENTED_EDGE ( 'NONE', *, *, #151, .F. ) ;
#105 = DIRECTION ( 'NONE',  ( -1.000000000000000000, -0.0000000000000000000, -0.0000000000000000000 ) ) ;
#106 = CARTESIAN_POINT ( 'NONE',  ( 48.30256729189368800, 26.09342197056487900, 0.0000000000000000000 ) ) ;
#107 = APPLICATION_CONTEXT ( 'automotive_design' ) ;
#108 = VERTEX_POINT ( 'NONE', #44 ) ;
#109 = PRODUCT_DEFINITION_CONTEXT ( 'detailed design', #158, 'design' ) ;
#110 = PRODUCT ( '100513', '100513', '', ( #18 ) ) ;
#111 = CLOSED_SHELL ( 'NONE', ( #70, #71, #141, #27, #56 ) ) ;
#112 = AXIS2_PLACEMENT_3D ( 'NONE', #165, #169, #72 ) ;
#113 = DIRECTION ( 'NONE',  ( 0.0000000000000000000, 0.0000000000000000000, 1.000000000000000000 ) ) ;
#114 = DIRECTION ( 'NONE',  ( 0.0000000000000000000, 1.224646799147353200E-016, -1.000000000000000000 ) ) ;
#115 = EDGE_LOOP ( 'NONE', ( #33, #143, #104, #172 ) ) ;
#116 = CIRCLE ( 'NONE', #83, 67.35416666666667100 ) ;
#117 = CARTESIAN_POINT ( 'NONE',  ( 46.30256729189369500, 26.09342197056487900, -6.349999999999997900 ) ) ;
#118 = PLANE ( 'NONE',  #174 ) ;
#119 = DIRECTION ( 'NONE',  ( -1.000000000000000000, -0.0000000000000000000, -0.0000000000000000000 ) ) ;
#120 = DIRECTION ( 'NONE',  ( 1.000000000000000000, 0.0000000000000000000, 0.0000000000000000000 ) ) ;
#121 = SURFACE_SIDE_STYLE ('',( #179 ) ) ;
#122 = AXIS2_PLACEMENT_3D ( 'NONE', #55, #47, #42 ) ;
#123 = PRODUCT_DEFINITION_SHAPE ( 'NONE', 'NONE',  #126 ) ;
#124 = FACE_OUTER_BOUND ( 'NONE', #14, .T. ) ;
#125 = CARTESIAN_POINT ( 'NONE',  ( 46.30256729189369500, 26.09342197056487900, 0.0000000000000000000 ) ) ;
#126 = PRODUCT_DEFINITION ( 'Î´Öª', '', #160, #109 ) ;
#127 = SPHERICAL_SURFACE ( 'NONE', #137, 67.35416666666667100 ) ;
#128 = DIRECTION ( 'NONE',  ( 0.0000000000000000000, 1.000000000000000000, 0.0000000000000000000 ) ) ;
#129 = CARTESIAN_POINT ( 'NONE',  ( 48.30256729189369500, 32.44342197056492700, 0.0000000000000000000 ) ) ;
#130 = CARTESIAN_POINT ( 'NONE',  ( -18.75159937477296900, 26.09342197056487900, 0.0000000000000000000 ) ) ;
#131 = ORIENTED_EDGE ( 'NONE', *, *, #167, .T. ) ;
#132 = AXIS2_PLACEMENT_3D ( 'NONE', #168, #89, #102 ) ;
#133 = CARTESIAN_POINT ( 'NONE',  ( 44.06614929139537700, 26.09342197056487900, 6.349999999999997900 ) ) ;
#134 = VERTEX_POINT ( 'NONE', #58 ) ;
#135 = DIRECTION ( 'NONE',  ( 0.0000000000000000000, 0.0000000000000000000, 1.000000000000000000 ) ) ;
#136 = ORIENTED_EDGE ( 'NONE', *, *, #178, .F. ) ;
#137 = AXIS2_PLACEMENT_3D ( 'NONE', #54, #184, #50 ) ;
#138 = CIRCLE ( 'NONE', #122, 67.35416666666667100 ) ;
#139 = STYLED_ITEM ( 'NONE', ( #64 ), #24 ) ;
#140 = PRESENTATION_LAYER_ASSIGNMENT (  '', '', ( #63 ) ) ;
#141 = ADVANCED_FACE ( 'NONE', ( #124 ), #127, .T. ) ;
#142 =( LENGTH_UNIT ( ) NAMED_UNIT ( * ) SI_UNIT ( .MILLI., .METRE. ) );
#143 = ORIENTED_EDGE ( 'NONE', *, *, #37, .T. ) ;
#144 = CARTESIAN_POINT ( 'NONE',  ( 46.30256729189369500, 26.09342197056487900, 0.0000000000000000000 ) ) ;
#145 = VECTOR ( 'NONE', #146, 1000.000000000000000 ) ;
#146 = DIRECTION ( 'NONE',  ( -1.000000000000000000, -0.0000000000000000000, -0.0000000000000000000 ) ) ;
#147 = FILL_AREA_STYLE ('',( #161 ) ) ;
#148 = COLOUR_RGB ( '',1.000000000000000000, 1.000000000000000000, 1.000000000000000000 ) ;
#149 = MECHANICAL_DESIGN_GEOMETRIC_PRESENTATION_REPRESENTATION (  '', ( #139 ), #76 ) ;
#150 = ORIENTED_EDGE ( 'NONE', *, *, #6, .T. ) ;
#151 = EDGE_CURVE ( 'NONE', #30, #108, #94, .T. ) ;
#152 =( NAMED_UNIT ( * ) PLANE_ANGLE_UNIT ( ) SI_UNIT ( $, .RADIAN. ) );
#153 = DIRECTION ( 'NONE',  ( 0.0000000000000000000, 0.0000000000000000000, 1.000000000000000000 ) ) ;
#154 = CIRCLE ( 'NONE', #41, 6.349999999999997900 ) ;
#155 = DIRECTION ( 'NONE',  ( 0.0000000000000000000, 1.000000000000000000, 1.224646799147353200E-016 ) ) ;
#156 = CARTESIAN_POINT ( 'NONE',  ( 48.30256729189368800, 26.09342197056487900, -6.349999999999997900 ) ) ;
#157 = DIRECTION ( 'NONE',  ( 0.0000000000000000000, 0.0000000000000000000, 1.000000000000000000 ) ) ;
#158 = APPLICATION_CONTEXT ( 'automotive_design' ) ;
#159 =( NAMED_UNIT ( * ) PLANE_ANGLE_UNIT ( ) SI_UNIT ( $, .RADIAN. ) );
#160 = PRODUCT_DEFINITION_FORMATION_WITH_SPECIFIED_SOURCE ( 'ÈÎºÎ', '', #110, .NOT_KNOWN. ) ;
#161 = FILL_AREA_STYLE_COLOUR ( '', #148 ) ;
#162 = EDGE_CURVE ( 'NONE', #108, #134, #7, .T. ) ;
#163 = EDGE_LOOP ( 'NONE', ( #22, #36, #65, #43, #176 ) ) ;
#164 = FACE_OUTER_BOUND ( 'NONE', #67, .T. ) ;
#165 = CARTESIAN_POINT ( 'NONE',  ( 44.06614929139537700, 26.09342197056487900, 0.0000000000000000000 ) ) ;
#166 =( NAMED_UNIT ( * ) SI_UNIT ( $, .STERADIAN. ) SOLID_ANGLE_UNIT ( ) );
#167 = EDGE_CURVE ( 'NONE', #25, #95, #154, .T. ) ;
#168 = CARTESIAN_POINT ( 'NONE',  ( 48.30256729189368800, 26.09342197056487900, 0.0000000000000000000 ) ) ;
#169 = DIRECTION ( 'NONE',  ( -1.000000000000000000, -0.0000000000000000000, -0.0000000000000000000 ) ) ;
#170 = DIRECTION ( 'NONE',  ( 0.0000000000000000000, 0.0000000000000000000, 1.000000000000000000 ) ) ;
#171 = SURFACE_STYLE_USAGE ( .BOTH. , #121 ) ;
#172 = ORIENTED_EDGE ( 'NONE', *, *, #12, .F. ) ;
#173 = CYLINDRICAL_SURFACE ( 'NONE', #100, 6.349999999999997900 ) ;
#174 = AXIS2_PLACEMENT_3D ( 'NONE', #144, #185, #74 ) ;
#175 = PRESENTATION_STYLE_ASSIGNMENT (( #171 ) ) ;
#176 = ORIENTED_EDGE ( 'NONE', *, *, #3, .F. ) ;
#177 = UNCERTAINTY_MEASURE_WITH_UNIT (LENGTH_MEASURE( 1.000000000000000100E-005 ), #142, 'distance_accuracy_value', 'NONE');
#178 = EDGE_CURVE ( 'NONE', #134, #25, #73, .T. ) ;
#179 = SURFACE_STYLE_FILL_AREA ( #147 ) ;
#180 =( GEOMETRIC_REPRESENTATION_CONTEXT ( 3 ) GLOBAL_UNCERTAINTY_ASSIGNED_CONTEXT ( ( #48 ) ) GLOBAL_UNIT_ASSIGNED_CONTEXT ( ( #90, #159, #34 ) ) REPRESENTATION_CONTEXT ( 'NONE', 'WORKASPACE' ) );
#181 = ORIENTED_EDGE ( 'NONE', *, *, #12, .T. ) ;
#182 = SHAPE_DEFINITION_REPRESENTATION ( #123, #8 ) ;
#183 = VERTEX_POINT ( 'NONE', #60 ) ;
#184 = DIRECTION ( 'NONE',  ( -0.0000000000000000000, 0.0000000000000000000, -1.000000000000000000 ) ) ;
#185 = DIRECTION ( 'NONE',  ( 1.000000000000000000, 0.0000000000000000000, 0.0000000000000000000 ) ) ;
#186 = SPHERICAL_SURFACE ( 'NONE', #92, 67.35416666666667100 ) ;
ENDSEC;
END-ISO-10303-21;
