ISO-10303-21;
HEADER;
FILE_DESCRIPTION (( 'STEP AP214' ),
    '1' );
FILE_NAME ('100518.STEP',
    '2019-06-13T02:05:07',
    ( '' ),
    ( '' ),
    'SwSTEP 2.0',
    'SolidWorks 2016',
    '' );
FILE_SCHEMA (( 'AUTOMOTIVE_DESIGN' ));
ENDSEC;

DATA;
#1 = APPLICATION_PROTOCOL_DEFINITION ( 'draft international standard', 'automotive_design', 1998, #55 ) ;
#2 = EDGE_CURVE ( 'NONE', #91, #48, #39, .T. ) ;
#3 = ORIENTED_EDGE ( 'NONE', *, *, #144, .F. ) ;
#4 = AXIS2_PLACEMENT_3D ( 'NONE', #95, #169, #12 ) ;
#5 = VERTEX_POINT ( 'NONE', #104 ) ;
#6 = LINE ( 'NONE', #147, #102 ) ;
#7 = DIRECTION ( 'NONE',  ( 0.0000000000000000000, 0.0000000000000000000, 1.000000000000000000 ) ) ;
#8 = CARTESIAN_POINT ( 'NONE',  ( 119.4645554762012000, 65.23355492641219700, 0.0000000000000000000 ) ) ;
#9 =( NAMED_UNIT ( * ) PLANE_ANGLE_UNIT ( ) SI_UNIT ( $, .RADIAN. ) );
#10 = CARTESIAN_POINT ( 'NONE',  ( -149.2021111904680300, 65.23355492641204000, 0.0000000000000000000 ) ) ;
#11 = CIRCLE ( 'NONE', #45, 12.70000000000000300 ) ;
#12 = DIRECTION ( 'NONE',  ( 1.000000000000000000, 0.0000000000000000000, 0.0000000000000000000 ) ) ;
#13 = DIRECTION ( 'NONE',  ( -0.0000000000000000000, 0.0000000000000000000, -1.000000000000000000 ) ) ;
#14 = ORIENTED_EDGE ( 'NONE', *, *, #59, .T. ) ;
#15 = CYLINDRICAL_SURFACE ( 'NONE', #114, 12.70000000000000300 ) ;
#16 = MANIFOLD_SOLID_BREP ( 'Ðý×ª1', #174 ) ;
#17 = CIRCLE ( 'NONE', #4, 268.9666666666692500 ) ;
#18 = ORIENTED_EDGE ( 'NONE', *, *, #148, .F. ) ;
#19 = EDGE_LOOP ( 'NONE', ( #3, #62, #44, #165 ) ) ;
#20 = CARTESIAN_POINT ( 'NONE',  ( 115.7645554762012000, 65.23355492641219700, 0.0000000000000000000 ) ) ;
#21 = EDGE_CURVE ( 'NONE', #124, #35, #52, .T. ) ;
#22 = ORIENTED_EDGE ( 'NONE', *, *, #155, .T. ) ;
#23 = CARTESIAN_POINT ( 'NONE',  ( 119.4645554762011800, 77.93355492641229900, 0.0000000000000000000 ) ) ;
#24 =( LENGTH_UNIT ( ) NAMED_UNIT ( * ) SI_UNIT ( .MILLI., .METRE. ) );
#25 = DIRECTION ( 'NONE',  ( -1.000000000000000000, -0.0000000000000000000, -0.0000000000000000000 ) ) ;
#26 =( NAMED_UNIT ( * ) PLANE_ANGLE_UNIT ( ) SI_UNIT ( $, .RADIAN. ) );
#27 = FACE_OUTER_BOUND ( 'NONE', #123, .T. ) ;
#28 =( NAMED_UNIT ( * ) PLANE_ANGLE_UNIT ( ) SI_UNIT ( $, .RADIAN. ) );
#29 = STYLED_ITEM ( 'NONE', ( #157 ), #16 ) ;
#30 = VERTEX_POINT ( 'NONE', #23 ) ;
#31 = DIRECTION ( 'NONE',  ( -1.000000000000000000, -0.0000000000000000000, -0.0000000000000000000 ) ) ;
#32 = DIRECTION ( 'NONE',  ( 0.0000000000000000000, 0.0000000000000000000, 1.000000000000000000 ) ) ;
#33 = CARTESIAN_POINT ( 'NONE',  ( 119.4645554762012000, 65.23355492641219700, -12.70000000000000300 ) ) ;
#34 = AXIS2_PLACEMENT_3D ( 'NONE', #8, #31, #7 ) ;
#35 = VERTEX_POINT ( 'NONE', #80 ) ;
#36 = FILL_AREA_STYLE ('',( #110 ) ) ;
#37 =( LENGTH_UNIT ( ) NAMED_UNIT ( * ) SI_UNIT ( .MILLI., .METRE. ) );
#38 = DIRECTION ( 'NONE',  ( 0.0000000000000000000, 1.224646799147353200E-016, -1.000000000000000000 ) ) ;
#39 = CIRCLE ( 'NONE', #90, 12.70000000000000300 ) ;
#40 = CARTESIAN_POINT ( 'NONE',  ( 119.4645554762012000, 65.23355492641219700, 0.0000000000000000000 ) ) ;
#41 = SURFACE_STYLE_USAGE ( .BOTH. , #71 ) ;
#42 = CYLINDRICAL_SURFACE ( 'NONE', #75, 12.70000000000000300 ) ;
#43 = CIRCLE ( 'NONE', #168, 268.9666666666692500 ) ;
#44 = ORIENTED_EDGE ( 'NONE', *, *, #151, .F. ) ;
#45 = AXIS2_PLACEMENT_3D ( 'NONE', #86, #108, #183 ) ;
#46 = FACE_OUTER_BOUND ( 'NONE', #140, .T. ) ;
#47 = DIRECTION ( 'NONE',  ( 1.000000000000000000, 0.0000000000000000000, 0.0000000000000000000 ) ) ;
#48 = VERTEX_POINT ( 'NONE', #79 ) ;
#49 = DIRECTION ( 'NONE',  ( 0.0000000000000000000, 0.0000000000000000000, 1.000000000000000000 ) ) ;
#50 = APPLICATION_PROTOCOL_DEFINITION ( 'draft international standard', 'automotive_design', 1998, #98 ) ;
#51 = MECHANICAL_DESIGN_GEOMETRIC_PRESENTATION_REPRESENTATION (  '', ( #77 ), #101 ) ;
#52 = CIRCLE ( 'NONE', #156, 12.70000000000000300 ) ;
#53 = ADVANCED_FACE ( 'NONE', ( #27 ), #15, .T. ) ;
#54 = DIRECTION ( 'NONE',  ( 0.0000000000000000000, 1.000000000000000000, 0.0000000000000000000 ) ) ;
#55 = APPLICATION_CONTEXT ( 'automotive_design' ) ;
#56 = DIRECTION ( 'NONE',  ( 0.0000000000000000000, 0.0000000000000000000, 1.000000000000000000 ) ) ;
#57 = FACE_OUTER_BOUND ( 'NONE', #19, .T. ) ;
#58 = ORIENTED_EDGE ( 'NONE', *, *, #154, .F. ) ;
#59 = EDGE_CURVE ( 'NONE', #35, #160, #70, .T. ) ;
#60 = EDGE_LOOP ( 'NONE', ( #161, #175, #149, #132 ) ) ;
#61 = SHAPE_DEFINITION_REPRESENTATION ( #106, #182 ) ;
#62 = ORIENTED_EDGE ( 'NONE', *, *, #173, .T. ) ;
#63 = PRODUCT_RELATED_PRODUCT_CATEGORY ( 'part', '', ( #84 ) ) ;
#64 = CIRCLE ( 'NONE', #181, 12.70000000000000300 ) ;
#65 = DIRECTION ( 'NONE',  ( -1.000000000000000000, -0.0000000000000000000, -0.0000000000000000000 ) ) ;
#66 = DIRECTION ( 'NONE',  ( -0.0000000000000000000, 0.0000000000000000000, -1.000000000000000000 ) ) ;
#67 = CARTESIAN_POINT ( 'NONE',  ( 119.4645554762012000, 65.23355492641219700, 12.70000000000000300 ) ) ;
#68 = UNCERTAINTY_MEASURE_WITH_UNIT (LENGTH_MEASURE( 1.000000000000000100E-005 ), #24, 'distance_accuracy_value', 'NONE');
#69 = ADVANCED_FACE ( 'NONE', ( #82 ), #129, .F. ) ;
#70 = CIRCLE ( 'NONE', #34, 12.70000000000000300 ) ;
#71 = SURFACE_SIDE_STYLE ('',( #128 ) ) ;
#72 =( GEOMETRIC_REPRESENTATION_CONTEXT ( 3 ) GLOBAL_UNCERTAINTY_ASSIGNED_CONTEXT ( ( #68 ) ) GLOBAL_UNIT_ASSIGNED_CONTEXT ( ( #24, #28, #120 ) ) REPRESENTATION_CONTEXT ( 'NONE', 'WORKASPACE' ) );
#73 = CARTESIAN_POINT ( 'NONE',  ( 0.0000000000000000000, 0.0000000000000000000, 0.0000000000000000000 ) ) ;
#74 = ORIENTED_EDGE ( 'NONE', *, *, #154, .T. ) ;
#75 = AXIS2_PLACEMENT_3D ( 'NONE', #115, #143, #32 ) ;
#76 = DIRECTION ( 'NONE',  ( -1.000000000000000000, -0.0000000000000000000, -0.0000000000000000000 ) ) ;
#77 = STYLED_ITEM ( 'NONE', ( #112 ), #182 ) ;
#78 = CIRCLE ( 'NONE', #119, 12.70000000000000300 ) ;
#79 = CARTESIAN_POINT ( 'NONE',  ( 115.7645554762012000, 65.23355492641219700, 12.70000000000000300 ) ) ;
#80 = CARTESIAN_POINT ( 'NONE',  ( 119.4645554762011800, 52.53355492641195900, -1.555301434917149700E-015 ) ) ;
#81 = DIRECTION ( 'NONE',  ( -1.000000000000000000, -0.0000000000000000000, -0.0000000000000000000 ) ) ;
#82 = FACE_OUTER_BOUND ( 'NONE', #139, .T. ) ;
#83 = PRESENTATION_LAYER_ASSIGNMENT (  '', '', ( #29 ) ) ;
#84 = PRODUCT ( '100518', '100518', '', ( #150 ) ) ;
#85 = ADVANCED_FACE ( 'NONE', ( #46 ), #42, .T. ) ;
#86 = CARTESIAN_POINT ( 'NONE',  ( 115.7645554762012000, 65.23355492641219700, 0.0000000000000000000 ) ) ;
#87 = AXIS2_PLACEMENT_3D ( 'NONE', #20, #47, #118 ) ;
#88 = ORIENTED_EDGE ( 'NONE', *, *, #93, .F. ) ;
#89 = UNCERTAINTY_MEASURE_WITH_UNIT (LENGTH_MEASURE( 1.000000000000000100E-005 ), #37, 'distance_accuracy_value', 'NONE');
#90 = AXIS2_PLACEMENT_3D ( 'NONE', #163, #76, #146 ) ;
#91 = VERTEX_POINT ( 'NONE', #180 ) ;
#92 = VECTOR ( 'NONE', #96, 1000.000000000000000 ) ;
#93 = EDGE_CURVE ( 'NONE', #48, #91, #11, .T. ) ;
#94 =( LENGTH_UNIT ( ) NAMED_UNIT ( * ) SI_UNIT ( .MILLI., .METRE. ) );
#95 = CARTESIAN_POINT ( 'NONE',  ( -149.2021111904680300, 65.23355492641204000, 0.0000000000000000000 ) ) ;
#96 = DIRECTION ( 'NONE',  ( -1.000000000000000000, -0.0000000000000000000, -0.0000000000000000000 ) ) ;
#97 = ORIENTED_EDGE ( 'NONE', *, *, #2, .F. ) ;
#98 = APPLICATION_CONTEXT ( 'automotive_design' ) ;
#99 = MECHANICAL_DESIGN_GEOMETRIC_PRESENTATION_REPRESENTATION (  '', ( #29 ), #109 ) ;
#100 = ORIENTED_EDGE ( 'NONE', *, *, #93, .T. ) ;
#101 =( GEOMETRIC_REPRESENTATION_CONTEXT ( 3 ) GLOBAL_UNCERTAINTY_ASSIGNED_CONTEXT ( ( #89 ) ) GLOBAL_UNIT_ASSIGNED_CONTEXT ( ( #37, #26, #135 ) ) REPRESENTATION_CONTEXT ( 'NONE', 'WORKASPACE' ) );
#102 = VECTOR ( 'NONE', #25, 1000.000000000000000 ) ;
#103 = DIRECTION ( 'NONE',  ( -1.000000000000000000, -0.0000000000000000000, -0.0000000000000000000 ) ) ;
#104 = CARTESIAN_POINT ( 'NONE',  ( 119.7645554762012100, 65.23355492641205400, 0.0000000000000000000 ) ) ;
#105 =( NAMED_UNIT ( * ) SI_UNIT ( $, .STERADIAN. ) SOLID_ANGLE_UNIT ( ) );
#106 = PRODUCT_DEFINITION_SHAPE ( 'NONE', 'NONE',  #122 ) ;
#107 = CARTESIAN_POINT ( 'NONE',  ( -149.2021111904680300, 65.23355492641204000, 0.0000000000000000000 ) ) ;
#108 = DIRECTION ( 'NONE',  ( -1.000000000000000000, -0.0000000000000000000, -0.0000000000000000000 ) ) ;
#109 =( GEOMETRIC_REPRESENTATION_CONTEXT ( 3 ) GLOBAL_UNCERTAINTY_ASSIGNED_CONTEXT ( ( #167 ) ) GLOBAL_UNIT_ASSIGNED_CONTEXT ( ( #94, #9, #105 ) ) REPRESENTATION_CONTEXT ( 'NONE', 'WORKASPACE' ) );
#110 = FILL_AREA_STYLE_COLOUR ( '', #130 ) ;
#111 = CARTESIAN_POINT ( 'NONE',  ( -149.2021111904680300, 65.23355492641204000, 0.0000000000000000000 ) ) ;
#112 = PRESENTATION_STYLE_ASSIGNMENT (( #41 ) ) ;
#113 = LINE ( 'NONE', #184, #92 ) ;
#114 = AXIS2_PLACEMENT_3D ( 'NONE', #176, #103, #159 ) ;
#115 = CARTESIAN_POINT ( 'NONE',  ( 110.1653732284884500, 65.23355492641219700, 0.0000000000000000000 ) ) ;
#116 = FACE_OUTER_BOUND ( 'NONE', #60, .T. ) ;
#117 = ADVANCED_FACE ( 'NONE', ( #116 ), #153, .T. ) ;
#118 = DIRECTION ( 'NONE',  ( 0.0000000000000000000, 0.0000000000000000000, -1.000000000000000000 ) ) ;
#119 = AXIS2_PLACEMENT_3D ( 'NONE', #186, #65, #164 ) ;
#120 =( NAMED_UNIT ( * ) SI_UNIT ( $, .STERADIAN. ) SOLID_ANGLE_UNIT ( ) );
#121 = ORIENTED_EDGE ( 'NONE', *, *, #21, .T. ) ;
#122 = PRODUCT_DEFINITION ( 'Î´Öª', '', #152, #179 ) ;
#123 = EDGE_LOOP ( 'NONE', ( #18, #121, #14, #74, #97 ) ) ;
#124 = VERTEX_POINT ( 'NONE', #33 ) ;
#125 = SPHERICAL_SURFACE ( 'NONE', #172, 268.9666666666692500 ) ;
#126 = ORIENTED_EDGE ( 'NONE', *, *, #148, .T. ) ;
#127 = AXIS2_PLACEMENT_3D ( 'NONE', #111, #13, #166 ) ;
#128 = SURFACE_STYLE_FILL_AREA ( #36 ) ;
#129 = PLANE ( 'NONE',  #87 ) ;
#130 = COLOUR_RGB ( '',1.000000000000000000, 1.000000000000000000, 1.000000000000000000 ) ;
#131 = FILL_AREA_STYLE_COLOUR ( '', #177 ) ;
#132 = ORIENTED_EDGE ( 'NONE', *, *, #155, .F. ) ;
#133 = CARTESIAN_POINT ( 'NONE',  ( 119.4645554762012000, 65.23355492641219700, 0.0000000000000000000 ) ) ;
#134 = SURFACE_STYLE_USAGE ( .BOTH. , #162 ) ;
#135 =( NAMED_UNIT ( * ) SI_UNIT ( $, .STERADIAN. ) SOLID_ANGLE_UNIT ( ) );
#136 = DIRECTION ( 'NONE',  ( 0.0000000000000000000, 1.000000000000000000, 1.224646799147353000E-016 ) ) ;
#137 = PRESENTATION_LAYER_ASSIGNMENT (  '', '', ( #77 ) ) ;
#138 = DIRECTION ( 'NONE',  ( 0.0000000000000000000, 0.0000000000000000000, 1.000000000000000000 ) ) ;
#139 = EDGE_LOOP ( 'NONE', ( #100, #170 ) ) ;
#140 = EDGE_LOOP ( 'NONE', ( #22, #126, #88, #58, #185 ) ) ;
#141 = AXIS2_PLACEMENT_3D ( 'NONE', #73, #138, #171 ) ;
#142 = SURFACE_STYLE_FILL_AREA ( #158 ) ;
#143 = DIRECTION ( 'NONE',  ( -1.000000000000000000, -0.0000000000000000000, -0.0000000000000000000 ) ) ;
#144 = EDGE_CURVE ( 'NONE', #5, #35, #43, .T. ) ;
#145 = ADVANCED_FACE ( 'NONE', ( #57 ), #125, .T. ) ;
#146 = DIRECTION ( 'NONE',  ( 0.0000000000000000000, 0.0000000000000000000, 1.000000000000000000 ) ) ;
#147 = CARTESIAN_POINT ( 'NONE',  ( 110.1653732284884500, 65.23355492641219700, 12.70000000000000300 ) ) ;
#148 = EDGE_CURVE ( 'NONE', #124, #91, #113, .T. ) ;
#149 = ORIENTED_EDGE ( 'NONE', *, *, #21, .F. ) ;
#150 = PRODUCT_CONTEXT ( 'NONE', #55, 'mechanical' ) ;
#151 = EDGE_CURVE ( 'NONE', #160, #30, #78, .T. ) ;
#152 = PRODUCT_DEFINITION_FORMATION_WITH_SPECIFIED_SOURCE ( 'ÈÎºÎ', '', #84, .NOT_KNOWN. ) ;
#153 = SPHERICAL_SURFACE ( 'NONE', #127, 268.9666666666692500 ) ;
#154 = EDGE_CURVE ( 'NONE', #160, #48, #6, .T. ) ;
#155 = EDGE_CURVE ( 'NONE', #30, #124, #64, .T. ) ;
#156 = AXIS2_PLACEMENT_3D ( 'NONE', #133, #178, #49 ) ;
#157 = PRESENTATION_STYLE_ASSIGNMENT (( #134 ) ) ;
#158 = FILL_AREA_STYLE ('',( #131 ) ) ;
#159 = DIRECTION ( 'NONE',  ( 0.0000000000000000000, 0.0000000000000000000, 1.000000000000000000 ) ) ;
#160 = VERTEX_POINT ( 'NONE', #67 ) ;
#161 = ORIENTED_EDGE ( 'NONE', *, *, #173, .F. ) ;
#162 = SURFACE_SIDE_STYLE ('',( #142 ) ) ;
#163 = CARTESIAN_POINT ( 'NONE',  ( 115.7645554762012000, 65.23355492641219700, 0.0000000000000000000 ) ) ;
#164 = DIRECTION ( 'NONE',  ( 0.0000000000000000000, 0.0000000000000000000, 1.000000000000000000 ) ) ;
#165 = ORIENTED_EDGE ( 'NONE', *, *, #59, .F. ) ;
#166 = DIRECTION ( 'NONE',  ( 0.0000000000000000000, 1.000000000000000000, 0.0000000000000000000 ) ) ;
#167 = UNCERTAINTY_MEASURE_WITH_UNIT (LENGTH_MEASURE( 1.000000000000000100E-005 ), #94, 'distance_accuracy_value', 'NONE');
#168 = AXIS2_PLACEMENT_3D ( 'NONE', #10, #38, #136 ) ;
#169 = DIRECTION ( 'NONE',  ( -0.0000000000000000000, 0.0000000000000000000, 1.000000000000000000 ) ) ;
#170 = ORIENTED_EDGE ( 'NONE', *, *, #2, .T. ) ;
#171 = DIRECTION ( 'NONE',  ( 1.000000000000000000, 0.0000000000000000000, 0.0000000000000000000 ) ) ;
#172 = AXIS2_PLACEMENT_3D ( 'NONE', #107, #66, #54 ) ;
#173 = EDGE_CURVE ( 'NONE', #5, #30, #17, .T. ) ;
#174 = CLOSED_SHELL ( 'NONE', ( #85, #117, #145, #53, #69 ) ) ;
#175 = ORIENTED_EDGE ( 'NONE', *, *, #144, .T. ) ;
#176 = CARTESIAN_POINT ( 'NONE',  ( 110.1653732284884500, 65.23355492641219700, 0.0000000000000000000 ) ) ;
#177 = COLOUR_RGB ( '',1.000000000000000000, 1.000000000000000000, 1.000000000000000000 ) ;
#178 = DIRECTION ( 'NONE',  ( -1.000000000000000000, -0.0000000000000000000, -0.0000000000000000000 ) ) ;
#179 = PRODUCT_DEFINITION_CONTEXT ( 'detailed design', #98, 'design' ) ;
#180 = CARTESIAN_POINT ( 'NONE',  ( 115.7645554762012000, 65.23355492641219700, -12.70000000000000300 ) ) ;
#181 = AXIS2_PLACEMENT_3D ( 'NONE', #40, #81, #56 ) ;
#182 = ADVANCED_BREP_SHAPE_REPRESENTATION ( '100518', ( #16, #141 ), #72 ) ;
#183 = DIRECTION ( 'NONE',  ( 0.0000000000000000000, 0.0000000000000000000, 1.000000000000000000 ) ) ;
#184 = CARTESIAN_POINT ( 'NONE',  ( 110.1653732284884500, 65.23355492641219700, -12.70000000000000300 ) ) ;
#185 = ORIENTED_EDGE ( 'NONE', *, *, #151, .T. ) ;
#186 = CARTESIAN_POINT ( 'NONE',  ( 119.4645554762012000, 65.23355492641219700, 0.0000000000000000000 ) ) ;
ENDSEC;
END-ISO-10303-21;
