ISO-10303-21;
HEADER;
FILE_DESCRIPTION (( 'STEP AP203' ),
    '1' );
FILE_NAME ('100543.STEP',
    '2024-05-08T09:39:09',
    ( '' ),
    ( '' ),
    'SwSTEP 2.0',
    'SolidWorks 2020',
    '' );
FILE_SCHEMA (( 'CONFIG_CONTROL_DESIGN' ));
ENDSEC;

DATA;
#1 = AXIS2_PLACEMENT_3D ( 'NONE', #92, #125, #89 ) ;
#2 = DATE_TIME_ROLE ( 'creation_date' ) ;
#3 = PERSON_AND_ORGANIZATION_ROLE ( 'creator' ) ;
#4 = DATE_AND_TIME ( #141, #83 ) ;
#5 = ADVANCED_FACE ( 'NONE', ( #28 ), #150, .T. ) ;
#6 = ORIENTED_EDGE ( 'NONE', *, *, #160, .T. ) ;
#7 = CIRCLE ( 'NONE', #1, 3.000000000000000000 ) ;
#8 = DIRECTION ( 'NONE',  ( -1.000000000000000000, 7.228014483236695816E-17, 0.000000000000000000 ) ) ;
#9 = TOROIDAL_SURFACE ( 'NONE', #117, -0.01339987108760637598, 32.49999999999999289 ) ;
#10 = ORIENTED_EDGE ( 'NONE', *, *, #35, .F. ) ;
#11 = ORIENTED_EDGE ( 'NONE', *, *, #169, .F. ) ;
#12 = EDGE_CURVE ( 'NONE', #43, #23, #42, .T. ) ;
#13 = PERSON ( 'Î´Ö¸¶¨', 'Î´Ö¸¶¨', 'Î´Ö¸¶¨', ('Î´Ö¸¶¨'), ('Î´Ö¸¶¨'), ('Î´Ö¸¶¨') ) ;
#14 = AXIS2_PLACEMENT_3D ( 'NONE', #161, #145, #8 ) ;
#15 = CC_DESIGN_SECURITY_CLASSIFICATION ( #148, ( #130 ) ) ;
#16 = APPROVAL_STATUS ( 'not_yet_approved' ) ;
#17 = DIRECTION ( 'NONE',  ( 6.139409205142562350E-17, 1.000000000000000000, -0.000000000000000000 ) ) ;
#18 = CARTESIAN_POINT ( 'NONE',  ( 9.577478360022394999E-17, 1.559999999999999609, 0.000000000000000000 ) ) ;
#19 = DIRECTION ( 'NONE',  ( 6.139409205142562350E-17, 1.000000000000000000, -0.000000000000000000 ) ) ;
#20 = PRODUCT_RELATED_PRODUCT_CATEGORY ( 'detail', '', ( #98 ) ) ;
#21 = DATE_TIME_ROLE ( 'classification_date' ) ;
#22 = APPROVAL_STATUS ( 'not_yet_approved' ) ;
#23 = VERTEX_POINT ( 'NONE', #39 ) ;
#24 = LOCAL_TIME ( 17, 39, 9.000000000000000000, #52 ) ;
#25 = DIRECTION ( 'NONE',  ( -1.000000000000000000, 7.228014483236695816E-17, 0.000000000000000000 ) ) ;
#26 = EDGE_LOOP ( 'NONE', ( #177, #6, #72 ) ) ;
#27 = ADVANCED_FACE ( 'NONE', ( #97 ), #131, .T. ) ;
#28 = FACE_OUTER_BOUND ( 'NONE', #194, .T. ) ;
#29 = LINE ( 'NONE', #46, #59 ) ;
#30 = ORGANIZATION ( 'Î´Ö¸¶¨', 'Î´Ö¸¶¨', '' ) ;
#31 = DIRECTION ( 'NONE',  ( 1.000000000000000000, -6.139409205142562350E-17, 0.000000000000000000 ) ) ;
#32 = AXIS2_PLACEMENT_3D ( 'NONE', #100, #191, #25 ) ;
#33 = AXIS2_PLACEMENT_3D ( 'NONE', #166, #134, #79 ) ;
#34 = DIRECTION ( 'NONE',  ( 6.139409205142562350E-17, 1.000000000000000000, -0.000000000000000000 ) ) ;
#35 = EDGE_CURVE ( 'NONE', #165, #193, #68, .T. ) ;
#36 = SHAPE_DEFINITION_REPRESENTATION ( #60, #93 ) ;
#37 = PERSON_AND_ORGANIZATION ( #13, #30 ) ;
#38 = PERSON_AND_ORGANIZATION ( #13, #30 ) ;
#39 = CARTESIAN_POINT ( 'NONE',  ( 1.043699564874235563E-16, 1.699999999999999956, 0.000000000000000000 ) ) ;
#40 = CC_DESIGN_PERSON_AND_ORGANIZATION_ASSIGNMENT ( #186, #86, ( #130 ) ) ;
#41 = ADVANCED_FACE ( 'NONE', ( #118 ), #178, .T. ) ;
#42 = CIRCLE ( 'NONE', #158, 32.49999999999999289 ) ;
#43 = VERTEX_POINT ( 'NONE', #61 ) ;
#44 = DIRECTION ( 'NONE',  ( -1.000000000000000000, 6.139409205142562350E-17, 0.000000000000000000 ) ) ;
#45 = APPLICATION_PROTOCOL_DEFINITION ( 'international standard', 'config_control_design', 1994, #110 ) ;
#46 = CARTESIAN_POINT ( 'NONE',  ( -3.000000000000000000, 1.700000000000000178, 0.000000000000000000 ) ) ;
#47 = DIRECTION ( 'NONE',  ( 6.139409205142562350E-17, 1.000000000000000000, -0.000000000000000000 ) ) ;
#48 = CARTESIAN_POINT ( 'NONE',  ( -2.999999999999999556, 1.559999999999995834, 0.000000000000000000 ) ) ;
#49 = EDGE_CURVE ( 'NONE', #193, #165, #112, .T. ) ;
#50 = CLOSED_SHELL ( 'NONE', ( #27, #80, #155, #41, #5 ) ) ;
#51 = LOCAL_TIME ( 17, 39, 9.000000000000000000, #69 ) ;
#52 = COORDINATED_UNIVERSAL_TIME_OFFSET ( 8, 0, .AHEAD. ) ;
#53 = DATE_AND_TIME ( #114, #159 ) ;
#54 = VERTEX_POINT ( 'NONE', #48 ) ;
#55 = APPROVAL ( #22, 'Î´Ö¸¶¨' ) ;
#56 = CC_DESIGN_APPROVAL ( #87, ( #130 ) ) ;
#57 = DIRECTION ( 'NONE',  ( 6.139409205142562350E-17, 1.000000000000000000, -0.000000000000000000 ) ) ;
#58 = ORIENTED_EDGE ( 'NONE', *, *, #49, .F. ) ;
#59 = VECTOR ( 'NONE', #167, 1000.000000000000000 ) ;
#60 = PRODUCT_DEFINITION_SHAPE ( 'NONE', 'NONE',  #190 ) ;
#61 = CARTESIAN_POINT ( 'NONE',  ( 3.000000000000000000, 1.559999999999995612, 3.673940397442059868E-16 ) ) ;
#62 = DIRECTION ( 'NONE',  ( 6.139409205142562350E-17, 1.000000000000000000, -0.000000000000000000 ) ) ;
#63 = UNCERTAINTY_MEASURE_WITH_UNIT (LENGTH_MEASURE( 1.000000000000000082E-05 ), #136, 'distance_accuracy_value', 'NONE');
#64 = APPROVAL_PERSON_ORGANIZATION ( #201, #55, #139 ) ;
#65 =( NAMED_UNIT ( * ) PLANE_ANGLE_UNIT ( ) SI_UNIT ( $, .RADIAN. ) );
#66 =( NAMED_UNIT ( * ) SI_UNIT ( $, .STERADIAN. ) SOLID_ANGLE_UNIT ( ) );
#67 = COORDINATED_UNIVERSAL_TIME_OFFSET ( 8, 0, .AHEAD. ) ;
#68 = CIRCLE ( 'NONE', #151, 3.000000000000000000 ) ;
#69 = COORDINATED_UNIVERSAL_TIME_OFFSET ( 8, 0, .AHEAD. ) ;
#70 = DATE_AND_TIME ( #94, #51 ) ;
#71 = CIRCLE ( 'NONE', #33, 32.49999999999999289 ) ;
#72 = ORIENTED_EDGE ( 'NONE', *, *, #121, .T. ) ;
#73 = AXIS2_PLACEMENT_3D ( 'NONE', #179, #168, #31 ) ;
#74 = MANIFOLD_SOLID_BREP ( 'Ðý×ª1', #50 ) ;
#75 = EDGE_CURVE ( 'NONE', #54, #43, #7, .T. ) ;
#76 = CARTESIAN_POINT ( 'NONE',  ( -3.611118645726067224E-32, -6.505213034913026604E-16, 0.000000000000000000 ) ) ;
#77 = ORIENTED_EDGE ( 'NONE', *, *, #160, .F. ) ;
#78 = LOCAL_TIME ( 17, 39, 9.000000000000000000, #67 ) ;
#79 = DIRECTION ( 'NONE',  ( -1.000000000000000000, 0.000000000000000000, 0.000000000000000000 ) ) ;
#80 = ADVANCED_FACE ( 'NONE', ( #107 ), #135, .T. ) ;
#81 = SECURITY_CLASSIFICATION_LEVEL ( 'unclassified' ) ;
#82 = DESIGN_CONTEXT ( 'detailed design', #85, 'design' ) ;
#83 = LOCAL_TIME ( 17, 39, 9.000000000000000000, #109 ) ;
#84 = APPROVAL_DATE_TIME ( #189, #103 ) ;
#85 = APPLICATION_CONTEXT ( 'configuration controlled 3d designs of mechanical parts and assemblies' ) ;
#86 = PERSON_AND_ORGANIZATION_ROLE ( 'design_supplier' ) ;
#87 = APPROVAL ( #157, 'Î´Ö¸¶¨' ) ;
#88 = AXIS2_PLACEMENT_3D ( 'NONE', #18, #34, #132 ) ;
#89 = DIRECTION ( 'NONE',  ( -1.000000000000000000, 7.228014483236695816E-17, 0.000000000000000000 ) ) ;
#90 = AXIS2_PLACEMENT_3D ( 'NONE', #185, #47, #44 ) ;
#91 = PERSON_AND_ORGANIZATION ( #13, #30 ) ;
#92 = CARTESIAN_POINT ( 'NONE',  ( 9.577478360022394999E-17, 1.559999999999999609, 0.000000000000000000 ) ) ;
#93 = ADVANCED_BREP_SHAPE_REPRESENTATION ( '100543', ( #74, #101 ), #108 ) ;
#94 = CALENDAR_DATE ( 2024, 8, 5 ) ;
#95 = APPROVAL_DATE_TIME ( #142, #55 ) ;
#96 = CC_DESIGN_PERSON_AND_ORGANIZATION_ASSIGNMENT ( #37, #3, ( #190 ) ) ;
#97 = FACE_OUTER_BOUND ( 'NONE', #99, .T. ) ;
#98 = PRODUCT ( '100543', '100543', '', ( #105 ) ) ;
#99 = EDGE_LOOP ( 'NONE', ( #175, #128, #163, #11 ) ) ;
#100 = CARTESIAN_POINT ( 'NONE',  ( 1.043699564874235563E-16, 1.699999999999999956, 0.000000000000000000 ) ) ;
#101 = AXIS2_PLACEMENT_3D ( 'NONE', #198, #123, #183 ) ;
#102 = ORIENTED_EDGE ( 'NONE', *, *, #12, .T. ) ;
#103 = APPROVAL ( #16, 'Î´Ö¸¶¨' ) ;
#104 = CARTESIAN_POINT ( 'NONE',  ( -1.890577538271598357E-15, -30.79999723759149077, 0.000000000000000000 ) ) ;
#105 = MECHANICAL_CONTEXT ( 'NONE', #110, 'mechanical' ) ;
#106 = APPLICATION_PROTOCOL_DEFINITION ( 'international standard', 'config_control_design', 1994, #85 ) ;
#107 = FACE_OUTER_BOUND ( 'NONE', #149, .T. ) ;
#108 =( GEOMETRIC_REPRESENTATION_CONTEXT ( 3 ) GLOBAL_UNCERTAINTY_ASSIGNED_CONTEXT ( ( #63 ) ) GLOBAL_UNIT_ASSIGNED_CONTEXT ( ( #136, #65, #66 ) ) REPRESENTATION_CONTEXT ( 'NONE', 'WORKASPACE' ) );
#109 = COORDINATED_UNIVERSAL_TIME_OFFSET ( 8, 0, .AHEAD. ) ;
#110 = APPLICATION_CONTEXT ( 'configuration controlled 3d designs of mechanical parts and assemblies' ) ;
#111 = PERSON_AND_ORGANIZATION ( #13, #30 ) ;
#112 = CIRCLE ( 'NONE', #90, 3.000000000000000000 ) ;
#113 = APPROVAL_PERSON_ORGANIZATION ( #38, #87, #137 ) ;
#114 = CALENDAR_DATE ( 2024, 8, 5 ) ;
#115 = ORIENTED_EDGE ( 'NONE', *, *, #75, .T. ) ;
#116 = DIRECTION ( 'NONE',  ( 1.000000000000000000, 0.000000000000000000, 1.224646799147353454E-16 ) ) ;
#117 = AXIS2_PLACEMENT_3D ( 'NONE', #154, #17, #122 ) ;
#118 = FACE_OUTER_BOUND ( 'NONE', #192, .T. ) ;
#119 = DIRECTION ( 'NONE',  ( -1.000000000000000000, 6.139409205142562350E-17, 0.000000000000000000 ) ) ;
#120 = AXIS2_PLACEMENT_3D ( 'NONE', #104, #19, #196 ) ;
#121 = EDGE_CURVE ( 'NONE', #54, #23, #71, .T. ) ;
#122 = DIRECTION ( 'NONE',  ( -1.000000000000000000, 6.139409205142562350E-17, 0.000000000000000000 ) ) ;
#123 = DIRECTION ( 'NONE',  ( 0.000000000000000000, 0.000000000000000000, 1.000000000000000000 ) ) ;
#124 = PERSON_AND_ORGANIZATION ( #13, #30 ) ;
#125 = DIRECTION ( 'NONE',  ( 6.139409205142562350E-17, 1.000000000000000000, -0.000000000000000000 ) ) ;
#126 = CALENDAR_DATE ( 2024, 8, 5 ) ;
#127 = CALENDAR_DATE ( 2024, 8, 5 ) ;
#128 = ORIENTED_EDGE ( 'NONE', *, *, #197, .T. ) ;
#129 = CC_DESIGN_DATE_AND_TIME_ASSIGNMENT ( #4, #21, ( #148 ) ) ;
#130 = PRODUCT_DEFINITION_FORMATION_WITH_SPECIFIED_SOURCE ( 'ÈÎºÎ', '', #98, .NOT_KNOWN. ) ;
#131 = CYLINDRICAL_SURFACE ( 'NONE', #14, 3.000000000000000000 ) ;
#132 = DIRECTION ( 'NONE',  ( -1.000000000000000000, 7.228014483236695816E-17, 0.000000000000000000 ) ) ;
#133 = CC_DESIGN_APPROVAL ( #103, ( #190 ) ) ;
#134 = DIRECTION ( 'NONE',  ( -0.000000000000000000, 0.000000000000000000, -1.000000000000000000 ) ) ;
#135 = TOROIDAL_SURFACE ( 'NONE', #120, -0.01339987108760637598, 32.49999999999999289 ) ;
#136 =( LENGTH_UNIT ( ) NAMED_UNIT ( * ) SI_UNIT ( .MILLI., .METRE. ) );
#137 = APPROVAL_ROLE ( '' ) ;
#138 = CC_DESIGN_PERSON_AND_ORGANIZATION_ASSIGNMENT ( #91, #153, ( #98 ) ) ;
#139 = APPROVAL_ROLE ( '' ) ;
#140 = APPROVAL_PERSON_ORGANIZATION ( #124, #103, #199 ) ;
#141 = CALENDAR_DATE ( 2024, 8, 5 ) ;
#142 = DATE_AND_TIME ( #126, #78 ) ;
#143 = ORIENTED_EDGE ( 'NONE', *, *, #197, .F. ) ;
#144 = CIRCLE ( 'NONE', #88, 3.000000000000000000 ) ;
#145 = DIRECTION ( 'NONE',  ( 6.139409205142562350E-17, 1.000000000000000000, -0.000000000000000000 ) ) ;
#146 = CC_DESIGN_PERSON_AND_ORGANIZATION_ASSIGNMENT ( #111, #187, ( #130 ) ) ;
#147 = ORIENTED_EDGE ( 'NONE', *, *, #169, .T. ) ;
#148 = SECURITY_CLASSIFICATION ( '', '', #81 ) ;
#149 = EDGE_LOOP ( 'NONE', ( #115, #102, #162 ) ) ;
#150 = CYLINDRICAL_SURFACE ( 'NONE', #32, 3.000000000000000000 ) ;
#151 = AXIS2_PLACEMENT_3D ( 'NONE', #76, #57, #119 ) ;
#152 = FACE_OUTER_BOUND ( 'NONE', #26, .T. ) ;
#153 = PERSON_AND_ORGANIZATION_ROLE ( 'design_owner' ) ;
#154 = CARTESIAN_POINT ( 'NONE',  ( -1.890577538271598357E-15, -30.79999723759149077, 0.000000000000000000 ) ) ;
#155 = ADVANCED_FACE ( 'NONE', ( #152 ), #9, .T. ) ;
#156 = PERSON_AND_ORGANIZATION_ROLE ( 'classification_officer' ) ;
#157 = APPROVAL_STATUS ( 'not_yet_approved' ) ;
#158 = AXIS2_PLACEMENT_3D ( 'NONE', #180, #164, #116 ) ;
#159 = LOCAL_TIME ( 17, 39, 9.000000000000000000, #188 ) ;
#160 = EDGE_CURVE ( 'NONE', #43, #54, #144, .T. ) ;
#161 = CARTESIAN_POINT ( 'NONE',  ( 1.043699564874235563E-16, 1.699999999999999956, 0.000000000000000000 ) ) ;
#162 = ORIENTED_EDGE ( 'NONE', *, *, #121, .F. ) ;
#163 = ORIENTED_EDGE ( 'NONE', *, *, #75, .F. ) ;
#164 = DIRECTION ( 'NONE',  ( -1.224646799147353207E-16, 7.518607831733635429E-33, 1.000000000000000000 ) ) ;
#165 = VERTEX_POINT ( 'NONE', #170 ) ;
#166 = CARTESIAN_POINT ( 'NONE',  ( 0.01339987108760448513, -30.79999723759149077, 0.000000000000000000 ) ) ;
#167 = DIRECTION ( 'NONE',  ( 6.139409205142562350E-17, 1.000000000000000000, -0.000000000000000000 ) ) ;
#168 = DIRECTION ( 'NONE',  ( -6.139409205142562350E-17, -1.000000000000000000, 0.000000000000000000 ) ) ;
#169 = EDGE_CURVE ( 'NONE', #165, #54, #29, .T. ) ;
#170 = CARTESIAN_POINT ( 'NONE',  ( -3.000000000000000000, -4.663390273370257529E-16, 0.000000000000000000 ) ) ;
#171 = VECTOR ( 'NONE', #62, 1000.000000000000000 ) ;
#172 = PERSON_AND_ORGANIZATION ( #13, #30 ) ;
#173 = CC_DESIGN_APPROVAL ( #55, ( #148 ) ) ;
#174 = APPROVAL_DATE_TIME ( #53, #87 ) ;
#175 = ORIENTED_EDGE ( 'NONE', *, *, #35, .T. ) ;
#176 = CC_DESIGN_DATE_AND_TIME_ASSIGNMENT ( #70, #2, ( #190 ) ) ;
#177 = ORIENTED_EDGE ( 'NONE', *, *, #12, .F. ) ;
#178 = PLANE ( 'NONE',  #73 ) ;
#179 = CARTESIAN_POINT ( 'NONE',  ( -1.693176355582883964E-32, -2.757881579492414718E-16, 0.000000000000000000 ) ) ;
#180 = CARTESIAN_POINT ( 'NONE',  ( -0.01339987108760826683, -30.79999723759149077, -1.641010923642431120E-18 ) ) ;
#181 = CARTESIAN_POINT ( 'NONE',  ( 3.000000000000000000, 1.699999999999999734, 3.673940397442059868E-16 ) ) ;
#182 = CC_DESIGN_PERSON_AND_ORGANIZATION_ASSIGNMENT ( #172, #156, ( #148 ) ) ;
#183 = DIRECTION ( 'NONE',  ( 1.000000000000000000, 0.000000000000000000, 0.000000000000000000 ) ) ;
#184 = LINE ( 'NONE', #181, #171 ) ;
#185 = CARTESIAN_POINT ( 'NONE',  ( -3.611118645726067224E-32, -6.505213034913026604E-16, 0.000000000000000000 ) ) ;
#186 = PERSON_AND_ORGANIZATION ( #13, #30 ) ;
#187 = PERSON_AND_ORGANIZATION_ROLE ( 'creator' ) ;
#188 = COORDINATED_UNIVERSAL_TIME_OFFSET ( 8, 0, .AHEAD. ) ;
#189 = DATE_AND_TIME ( #127, #24 ) ;
#190 = PRODUCT_DEFINITION ( 'Î´Öª', '', #130, #82 ) ;
#191 = DIRECTION ( 'NONE',  ( 6.139409205142562350E-17, 1.000000000000000000, -0.000000000000000000 ) ) ;
#192 = EDGE_LOOP ( 'NONE', ( #10, #58 ) ) ;
#193 = VERTEX_POINT ( 'NONE', #200 ) ;
#194 = EDGE_LOOP ( 'NONE', ( #143, #195, #147, #77 ) ) ;
#195 = ORIENTED_EDGE ( 'NONE', *, *, #49, .T. ) ;
#196 = DIRECTION ( 'NONE',  ( -1.000000000000000000, 6.139409205142562350E-17, 0.000000000000000000 ) ) ;
#197 = EDGE_CURVE ( 'NONE', #193, #43, #184, .T. ) ;
#198 = CARTESIAN_POINT ( 'NONE',  ( 0.000000000000000000, 0.000000000000000000, 0.000000000000000000 ) ) ;
#199 = APPROVAL_ROLE ( '' ) ;
#200 = CARTESIAN_POINT ( 'NONE',  ( 3.000000000000000000, -8.347035796455795679E-16, 3.673940397442059868E-16 ) ) ;
#201 = PERSON_AND_ORGANIZATION ( #13, #30 ) ;
ENDSEC;
END-ISO-10303-21;
