ISO-10303-21;
HEADER;
FILE_DESCRIPTION (( 'STEP AP203' ),
    '1' );
FILE_NAME ('100547.STEP',
    '2024-05-08T09:57:34',
    ( '' ),
    ( '' ),
    'SwSTEP 2.0',
    'SolidWorks 2020',
    '' );
FILE_SCHEMA (( 'CONFIG_CONTROL_DESIGN' ));
ENDSEC;

DATA;
#1 = CARTESIAN_POINT ( 'NONE',  ( 0.000000000000000000, -1288.965401023800723, 3.048367365460774359 ) ) ;
#2 = ADVANCED_FACE ( 'NONE', ( #178 ), #190, .T. ) ;
#3 = EDGE_LOOP ( 'NONE', ( #85, #17, #14, #16 ) ) ;
#4 = AXIS2_PLACEMENT_3D ( 'NONE', #23, #77, #76 ) ;
#5 = LINE ( 'NONE', #21, #12 ) ;
#6 = CARTESIAN_POINT ( 'NONE',  ( 0.000000000000000000, 1.999999999999998224, 0.000000000000000000 ) ) ;
#7 = DIRECTION ( 'NONE',  ( 0.000000000000000000, -0.000000000000000000, -1.000000000000000000 ) ) ;
#8 = ADVANCED_BREP_SHAPE_REPRESENTATION ( '100547', ( #124, #96 ), #173 ) ;
#9 = CALENDAR_DATE ( 2024, 8, 5 ) ;
#10 = CC_DESIGN_PERSON_AND_ORGANIZATION_ASSIGNMENT ( #153, #86, ( #157 ) ) ;
#11 = APPROVAL_ROLE ( '' ) ;
#12 = VECTOR ( 'NONE', #90, 1000.000000000000000 ) ;
#13 = PRODUCT_DEFINITION_SHAPE ( 'NONE', 'NONE',  #128 ) ;
#14 = ORIENTED_EDGE ( 'NONE', *, *, #43, .F. ) ;
#15 = PERSON_AND_ORGANIZATION ( #19, #30 ) ;
#16 = ORIENTED_EDGE ( 'NONE', *, *, #172, .F. ) ;
#17 = ORIENTED_EDGE ( 'NONE', *, *, #27, .T. ) ;
#18 = AXIS2_PLACEMENT_3D ( 'NONE', #116, #149, #7 ) ;
#19 = PERSON ( 'Î´Ö¸¶¨', 'Î´Ö¸¶¨', 'Î´Ö¸¶¨', ('Î´Ö¸¶¨'), ('Î´Ö¸¶¨'), ('Î´Ö¸¶¨') ) ;
#20 = CARTESIAN_POINT ( 'NONE',  ( 1.530808498934191521E-15, -1.734723475976807094E-15, -12.50000000000000000 ) ) ;
#21 = CARTESIAN_POINT ( 'NONE',  ( 1.530808498934191521E-15, 2.031000000000000139, -12.50000000000000000 ) ) ;
#22 = ORIENTED_EDGE ( 'NONE', *, *, #43, .T. ) ;
#23 = CARTESIAN_POINT ( 'NONE',  ( 0.000000000000000000, -1288.965401023800723, 0.000000000000000000 ) ) ;
#24 = FACE_OUTER_BOUND ( 'NONE', #199, .T. ) ;
#25 = DESIGN_CONTEXT ( 'detailed design', #144, 'design' ) ;
#26 = CC_DESIGN_PERSON_AND_ORGANIZATION_ASSIGNMENT ( #15, #122, ( #128 ) ) ;
#27 = EDGE_CURVE ( 'NONE', #70, #111, #5, .T. ) ;
#28 = COORDINATED_UNIVERSAL_TIME_OFFSET ( 8, 0, .AHEAD. ) ;
#29 = DIRECTION ( 'NONE',  ( 1.000000000000000000, 0.000000000000000000, 0.000000000000000000 ) ) ;
#30 = ORGANIZATION ( 'Î´Ö¸¶¨', 'Î´Ö¸¶¨', '' ) ;
#31 = CIRCLE ( 'NONE', #110, 1291.000000000000455 ) ;
#32 = CC_DESIGN_PERSON_AND_ORGANIZATION_ASSIGNMENT ( #125, #156, ( #60 ) ) ;
#33 = ORIENTED_EDGE ( 'NONE', *, *, #172, .T. ) ;
#34 = CC_DESIGN_APPROVAL ( #101, ( #60 ) ) ;
#35 = CC_DESIGN_PERSON_AND_ORGANIZATION_ASSIGNMENT ( #81, #154, ( #112 ) ) ;
#36 = DIRECTION ( 'NONE',  ( 0.000000000000000000, 0.000000000000000000, 1.000000000000000000 ) ) ;
#37 = CARTESIAN_POINT ( 'NONE',  ( 0.000000000000000000, -1.734723475976807094E-15, 0.000000000000000000 ) ) ;
#38 = DIRECTION ( 'NONE',  ( -0.000000000000000000, 1.000000000000000000, -0.000000000000000000 ) ) ;
#39 = AXIS2_PLACEMENT_3D ( 'NONE', #74, #52, #106 ) ;
#40 = AXIS2_PLACEMENT_3D ( 'NONE', #148, #133, #57 ) ;
#41 = LINE ( 'NONE', #146, #104 ) ;
#42 = APPROVAL_DATE_TIME ( #63, #49 ) ;
#43 = EDGE_CURVE ( 'NONE', #141, #111, #89, .T. ) ;
#44 = LOCAL_TIME ( 17, 57, 34.00000000000000000, #170 ) ;
#45 = DATE_AND_TIME ( #150, #44 ) ;
#46 = APPROVAL_DATE_TIME ( #182, #189 ) ;
#47 = CALENDAR_DATE ( 2024, 8, 5 ) ;
#48 = CIRCLE ( 'NONE', #160, 1291.000000000000455 ) ;
#49 = APPROVAL ( #135, 'Î´Ö¸¶¨' ) ;
#50 = CALENDAR_DATE ( 2024, 8, 5 ) ;
#51 = FACE_OUTER_BOUND ( 'NONE', #3, .T. ) ;
#52 = DIRECTION ( 'NONE',  ( -0.000000000000000000, 1.000000000000000000, -0.000000000000000000 ) ) ;
#53 = DIRECTION ( 'NONE',  ( 1.224646799147353207E-16, 0.000000000000000000, -1.000000000000000000 ) ) ;
#54 = LOCAL_TIME ( 17, 57, 34.00000000000000000, #198 ) ;
#55 = CARTESIAN_POINT ( 'NONE',  ( 0.000000000000000000, -1.734723475976807094E-15, 0.000000000000000000 ) ) ;
#56 = UNCERTAINTY_MEASURE_WITH_UNIT (LENGTH_MEASURE( 1.000000000000000082E-05 ), #87, 'distance_accuracy_value', 'NONE');
#57 = DIRECTION ( 'NONE',  ( 0.000000000000000000, 0.000000000000000000, 1.000000000000000000 ) ) ;
#58 = ADVANCED_FACE ( 'NONE', ( #131 ), #71, .T. ) ;
#59 = APPROVAL_STATUS ( 'not_yet_approved' ) ;
#60 = PRODUCT_DEFINITION_FORMATION_WITH_SPECIFIED_SOURCE ( 'ÈÎºÎ', '', #112, .NOT_KNOWN. ) ;
#61 =( NAMED_UNIT ( * ) SI_UNIT ( $, .STERADIAN. ) SOLID_ANGLE_UNIT ( ) );
#62 = CC_DESIGN_APPROVAL ( #189, ( #157 ) ) ;
#63 = DATE_AND_TIME ( #9, #54 ) ;
#64 = APPROVAL_ROLE ( '' ) ;
#65 = CC_DESIGN_DATE_AND_TIME_ASSIGNMENT ( #196, #168, ( #128 ) ) ;
#66 = ADVANCED_FACE ( 'NONE', ( #24 ), #184, .T. ) ;
#67 = ORIENTED_EDGE ( 'NONE', *, *, #83, .T. ) ;
#68 = PERSON_AND_ORGANIZATION ( #19, #30 ) ;
#69 = APPROVAL_PERSON_ORGANIZATION ( #68, #49, #166 ) ;
#70 = VERTEX_POINT ( 'NONE', #20 ) ;
#71 = TOROIDAL_SURFACE ( 'NONE', #4, 3.048367365460774359, 1291.000000000000455 ) ;
#72 = CYLINDRICAL_SURFACE ( 'NONE', #138, 12.50000000000000000 ) ;
#73 = CC_DESIGN_PERSON_AND_ORGANIZATION_ASSIGNMENT ( #108, #136, ( #60 ) ) ;
#74 = CARTESIAN_POINT ( 'NONE',  ( 0.000000000000000000, 2.031000000000000139, 0.000000000000000000 ) ) ;
#75 = LOCAL_TIME ( 17, 57, 34.00000000000000000, #142 ) ;
#76 = DIRECTION ( 'NONE',  ( 0.000000000000000000, 0.000000000000000000, 1.000000000000000000 ) ) ;
#77 = DIRECTION ( 'NONE',  ( -0.000000000000000000, 1.000000000000000000, -0.000000000000000000 ) ) ;
#78 = DIRECTION ( 'NONE',  ( -0.000000000000000000, 1.000000000000000000, -0.000000000000000000 ) ) ;
#79 = AXIS2_PLACEMENT_3D ( 'NONE', #55, #78, #130 ) ;
#80 = PERSON_AND_ORGANIZATION ( #19, #30 ) ;
#81 = PERSON_AND_ORGANIZATION ( #19, #30 ) ;
#82 = ORIENTED_EDGE ( 'NONE', *, *, #103, .F. ) ;
#83 = EDGE_CURVE ( 'NONE', #111, #115, #48, .T. ) ;
#84 = CIRCLE ( 'NONE', #151, 12.50000000000000000 ) ;
#85 = ORIENTED_EDGE ( 'NONE', *, *, #117, .T. ) ;
#86 = PERSON_AND_ORGANIZATION_ROLE ( 'classification_officer' ) ;
#87 =( LENGTH_UNIT ( ) NAMED_UNIT ( * ) SI_UNIT ( .MILLI., .METRE. ) );
#88 = DIRECTION ( 'NONE',  ( 0.000000000000000000, 0.000000000000000000, 1.000000000000000000 ) ) ;
#89 = CIRCLE ( 'NONE', #137, 12.50000000000000000 ) ;
#90 = DIRECTION ( 'NONE',  ( -0.000000000000000000, 1.000000000000000000, -0.000000000000000000 ) ) ;
#91 = CARTESIAN_POINT ( 'NONE',  ( 0.000000000000000000, -1.734723475976807094E-15, 12.50000000000000000 ) ) ;
#92 = FACE_OUTER_BOUND ( 'NONE', #171, .T. ) ;
#93 = CC_DESIGN_SECURITY_CLASSIFICATION ( #157, ( #60 ) ) ;
#94 = DATE_TIME_ROLE ( 'classification_date' ) ;
#95 = CALENDAR_DATE ( 2024, 8, 5 ) ;
#96 = AXIS2_PLACEMENT_3D ( 'NONE', #121, #97, #29 ) ;
#97 = DIRECTION ( 'NONE',  ( 0.000000000000000000, 0.000000000000000000, 1.000000000000000000 ) ) ;
#98 = ORIENTED_EDGE ( 'NONE', *, *, #83, .F. ) ;
#99 = CLOSED_SHELL ( 'NONE', ( #123, #66, #58, #192, #2 ) ) ;
#100 = APPLICATION_PROTOCOL_DEFINITION ( 'international standard', 'config_control_design', 1994, #188 ) ;
#101 = APPROVAL ( #140, 'Î´Ö¸¶¨' ) ;
#102 =( NAMED_UNIT ( * ) PLANE_ANGLE_UNIT ( ) SI_UNIT ( $, .RADIAN. ) );
#103 = EDGE_CURVE ( 'NONE', #70, #113, #200, .T. ) ;
#104 = VECTOR ( 'NONE', #165, 1000.000000000000000 ) ;
#105 = CARTESIAN_POINT ( 'NONE',  ( 0.000000000000000000, 2.031000000000000139, 0.000000000000000000 ) ) ;
#106 = DIRECTION ( 'NONE',  ( 0.000000000000000000, 0.000000000000000000, 1.000000000000000000 ) ) ;
#107 = APPROVAL_PERSON_ORGANIZATION ( #80, #101, #64 ) ;
#108 = PERSON_AND_ORGANIZATION ( #19, #30 ) ;
#109 = SECURITY_CLASSIFICATION_LEVEL ( 'unclassified' ) ;
#110 = AXIS2_PLACEMENT_3D ( 'NONE', #1, #179, #36 ) ;
#111 = VERTEX_POINT ( 'NONE', #134 ) ;
#112 = PRODUCT ( '100547', '100547', '', ( #183 ) ) ;
#113 = VERTEX_POINT ( 'NONE', #91 ) ;
#114 = EDGE_LOOP ( 'NONE', ( #158, #127, #33, #175 ) ) ;
#115 = VERTEX_POINT ( 'NONE', #119 ) ;
#116 = CARTESIAN_POINT ( 'NONE',  ( 0.000000000000000000, -7.654042494670958593E-16, 0.000000000000000000 ) ) ;
#117 = EDGE_CURVE ( 'NONE', #113, #70, #84, .T. ) ;
#118 = DIRECTION ( 'NONE',  ( -0.000000000000000000, 1.000000000000000000, -0.000000000000000000 ) ) ;
#119 = CARTESIAN_POINT ( 'NONE',  ( 0.000000000000000000, 2.031000000000000139, 0.000000000000000000 ) ) ;
#120 = CARTESIAN_POINT ( 'NONE',  ( 0.000000000000000000, 2.000000000000000000, 12.49999999999943867 ) ) ;
#121 = CARTESIAN_POINT ( 'NONE',  ( 0.000000000000000000, 0.000000000000000000, 0.000000000000000000 ) ) ;
#122 = PERSON_AND_ORGANIZATION_ROLE ( 'creator' ) ;
#123 = ADVANCED_FACE ( 'NONE', ( #51 ), #72, .T. ) ;
#124 = MANIFOLD_SOLID_BREP ( 'Ðý×ª1', #99 ) ;
#125 = PERSON_AND_ORGANIZATION ( #19, #30 ) ;
#126 = APPROVAL_DATE_TIME ( #45, #101 ) ;
#127 = ORIENTED_EDGE ( 'NONE', *, *, #103, .T. ) ;
#128 = PRODUCT_DEFINITION ( 'Î´Öª', '', #60, #25 ) ;
#129 = SHAPE_DEFINITION_REPRESENTATION ( #13, #8 ) ;
#130 = DIRECTION ( 'NONE',  ( 0.000000000000000000, 0.000000000000000000, 1.000000000000000000 ) ) ;
#131 = FACE_OUTER_BOUND ( 'NONE', #174, .T. ) ;
#132 = DIRECTION ( 'NONE',  ( -0.000000000000000000, 1.000000000000000000, -0.000000000000000000 ) ) ;
#133 = DIRECTION ( 'NONE',  ( -0.000000000000000000, 1.000000000000000000, -0.000000000000000000 ) ) ;
#134 = CARTESIAN_POINT ( 'NONE',  ( 1.530808498934123088E-15, 2.000000000000000000, -12.49999999999943867 ) ) ;
#135 = APPROVAL_STATUS ( 'not_yet_approved' ) ;
#136 = PERSON_AND_ORGANIZATION_ROLE ( 'creator' ) ;
#137 = AXIS2_PLACEMENT_3D ( 'NONE', #6, #38, #88 ) ;
#138 = AXIS2_PLACEMENT_3D ( 'NONE', #105, #180, #164 ) ;
#139 = COORDINATED_UNIVERSAL_TIME_OFFSET ( 8, 0, .AHEAD. ) ;
#140 = APPROVAL_STATUS ( 'not_yet_approved' ) ;
#141 = VERTEX_POINT ( 'NONE', #120 ) ;
#142 = COORDINATED_UNIVERSAL_TIME_OFFSET ( 8, 0, .AHEAD. ) ;
#143 = CC_DESIGN_APPROVAL ( #49, ( #128 ) ) ;
#144 = APPLICATION_CONTEXT ( 'configuration controlled 3d designs of mechanical parts and assemblies' ) ;
#145 = ORIENTED_EDGE ( 'NONE', *, *, #155, .T. ) ;
#146 = CARTESIAN_POINT ( 'NONE',  ( 0.000000000000000000, 2.031000000000000139, 12.50000000000000000 ) ) ;
#147 = LOCAL_TIME ( 17, 57, 34.00000000000000000, #139 ) ;
#148 = CARTESIAN_POINT ( 'NONE',  ( 0.000000000000000000, 1.999999999999998224, 0.000000000000000000 ) ) ;
#149 = DIRECTION ( 'NONE',  ( 0.000000000000000000, -1.000000000000000000, 0.000000000000000000 ) ) ;
#150 = CALENDAR_DATE ( 2024, 8, 5 ) ;
#151 = AXIS2_PLACEMENT_3D ( 'NONE', #37, #118, #177 ) ;
#152 = EDGE_CURVE ( 'NONE', #111, #141, #187, .T. ) ;
#153 = PERSON_AND_ORGANIZATION ( #19, #30 ) ;
#154 = PERSON_AND_ORGANIZATION_ROLE ( 'design_owner' ) ;
#155 = EDGE_CURVE ( 'NONE', #141, #115, #31, .T. ) ;
#156 = PERSON_AND_ORGANIZATION_ROLE ( 'design_supplier' ) ;
#157 = SECURITY_CLASSIFICATION ( '', '', #109 ) ;
#158 = ORIENTED_EDGE ( 'NONE', *, *, #27, .F. ) ;
#159 = ORIENTED_EDGE ( 'NONE', *, *, #117, .F. ) ;
#160 = AXIS2_PLACEMENT_3D ( 'NONE', #193, #191, #53 ) ;
#161 = CARTESIAN_POINT ( 'NONE',  ( 0.000000000000000000, -1288.965401023800723, 0.000000000000000000 ) ) ;
#162 = CC_DESIGN_DATE_AND_TIME_ASSIGNMENT ( #201, #94, ( #157 ) ) ;
#163 = ORIENTED_EDGE ( 'NONE', *, *, #155, .F. ) ;
#164 = DIRECTION ( 'NONE',  ( 0.000000000000000000, 0.000000000000000000, 1.000000000000000000 ) ) ;
#165 = DIRECTION ( 'NONE',  ( -0.000000000000000000, 1.000000000000000000, -0.000000000000000000 ) ) ;
#166 = APPROVAL_ROLE ( '' ) ;
#167 = AXIS2_PLACEMENT_3D ( 'NONE', #161, #132, #194 ) ;
#168 = DATE_TIME_ROLE ( 'creation_date' ) ;
#169 = LOCAL_TIME ( 17, 57, 34.00000000000000000, #28 ) ;
#170 = COORDINATED_UNIVERSAL_TIME_OFFSET ( 8, 0, .AHEAD. ) ;
#171 = EDGE_LOOP ( 'NONE', ( #159, #82 ) ) ;
#172 = EDGE_CURVE ( 'NONE', #113, #141, #41, .T. ) ;
#173 =( GEOMETRIC_REPRESENTATION_CONTEXT ( 3 ) GLOBAL_UNCERTAINTY_ASSIGNED_CONTEXT ( ( #56 ) ) GLOBAL_UNIT_ASSIGNED_CONTEXT ( ( #87, #102, #61 ) ) REPRESENTATION_CONTEXT ( 'NONE', 'WORKASPACE' ) );
#174 = EDGE_LOOP ( 'NONE', ( #98, #185, #145 ) ) ;
#175 = ORIENTED_EDGE ( 'NONE', *, *, #152, .F. ) ;
#176 = PRODUCT_RELATED_PRODUCT_CATEGORY ( 'detail', '', ( #112 ) ) ;
#177 = DIRECTION ( 'NONE',  ( 0.000000000000000000, 0.000000000000000000, 1.000000000000000000 ) ) ;
#178 = FACE_OUTER_BOUND ( 'NONE', #114, .T. ) ;
#179 = DIRECTION ( 'NONE',  ( -1.000000000000000000, 0.000000000000000000, 0.000000000000000000 ) ) ;
#180 = DIRECTION ( 'NONE',  ( -0.000000000000000000, 1.000000000000000000, -0.000000000000000000 ) ) ;
#181 = APPROVAL_PERSON_ORGANIZATION ( #197, #189, #11 ) ;
#182 = DATE_AND_TIME ( #50, #147 ) ;
#183 = MECHANICAL_CONTEXT ( 'NONE', #188, 'mechanical' ) ;
#184 = TOROIDAL_SURFACE ( 'NONE', #167, 3.048367365460774359, 1291.000000000000455 ) ;
#185 = ORIENTED_EDGE ( 'NONE', *, *, #152, .T. ) ;
#186 = APPLICATION_PROTOCOL_DEFINITION ( 'international standard', 'config_control_design', 1994, #144 ) ;
#187 = CIRCLE ( 'NONE', #40, 12.50000000000000000 ) ;
#188 = APPLICATION_CONTEXT ( 'configuration controlled 3d designs of mechanical parts and assemblies' ) ;
#189 = APPROVAL ( #59, 'Î´Ö¸¶¨' ) ;
#190 = CYLINDRICAL_SURFACE ( 'NONE', #39, 12.50000000000000000 ) ;
#191 = DIRECTION ( 'NONE',  ( 1.000000000000000000, 0.000000000000000000, 1.224646799147353207E-16 ) ) ;
#192 = ADVANCED_FACE ( 'NONE', ( #92 ), #195, .T. ) ;
#193 = CARTESIAN_POINT ( 'NONE',  ( 3.733173336736787001E-16, -1288.965401023800723, -3.048367365460774359 ) ) ;
#194 = DIRECTION ( 'NONE',  ( 0.000000000000000000, 0.000000000000000000, 1.000000000000000000 ) ) ;
#195 = PLANE ( 'NONE',  #18 ) ;
#196 = DATE_AND_TIME ( #47, #169 ) ;
#197 = PERSON_AND_ORGANIZATION ( #19, #30 ) ;
#198 = COORDINATED_UNIVERSAL_TIME_OFFSET ( 8, 0, .AHEAD. ) ;
#199 = EDGE_LOOP ( 'NONE', ( #22, #67, #163 ) ) ;
#200 = CIRCLE ( 'NONE', #79, 12.50000000000000000 ) ;
#201 = DATE_AND_TIME ( #95, #75 ) ;
ENDSEC;
END-ISO-10303-21;
