ISO-10303-21;
HEADER;
FILE_DESCRIPTION (( 'STEP AP203' ),
    '1' );
FILE_NAME ('100550.STEP',
    '2024-05-09T01:13:12',
    ( '' ),
    ( '' ),
    'SwSTEP 2.0',
    'SolidWorks 2020',
    '' );
FILE_SCHEMA (( 'CONFIG_CONTROL_DESIGN' ));
ENDSEC;

DATA;
#1 = PERSON ( 'Î´Ö¸¶¨', 'Î´Ö¸¶¨', 'Î´Ö¸¶¨', ('Î´Ö¸¶¨'), ('Î´Ö¸¶¨'), ('Î´Ö¸¶¨') ) ;
#2 = LOCAL_TIME ( 9, 13, 12.00000000000000000, #194 ) ;
#3 = DIRECTION ( 'NONE',  ( 0.000000000000000000, 0.000000000000000000, 1.000000000000000000 ) ) ;
#4 = APPROVAL_ROLE ( '' ) ;
#5 = SECURITY_CLASSIFICATION_LEVEL ( 'unclassified' ) ;
#6 = DIRECTION ( 'NONE',  ( -1.000000000000000000, 8.673617379884035472E-17, 0.000000000000000000 ) ) ;
#7 = CALENDAR_DATE ( 2024, 9, 5 ) ;
#8 = DIRECTION ( 'NONE',  ( 9.221418403196347497E-17, 1.000000000000000000, -0.000000000000000000 ) ) ;
#9 = VERTEX_POINT ( 'NONE', #199 ) ;
#10 = CARTESIAN_POINT ( 'NONE',  ( 5.689615154772147024E-16, 6.169999999999999929, 0.000000000000000000 ) ) ;
#11 = AXIS2_PLACEMENT_3D ( 'NONE', #193, #63, #34 ) ;
#12 = DIRECTION ( 'NONE',  ( 1.000000000000000000, -9.221418403196347497E-17, 0.000000000000000000 ) ) ;
#13 = AXIS2_PLACEMENT_3D ( 'NONE', #47, #19, #6 ) ;
#14 = CIRCLE ( 'NONE', #200, 15.00000000000000000 ) ;
#15 = AXIS2_PLACEMENT_3D ( 'NONE', #198, #27, #166 ) ;
#16 = PRODUCT_DEFINITION ( 'Î´Öª', '', #77, #167 ) ;
#17 = PERSON_AND_ORGANIZATION ( #1, #61 ) ;
#18 = PERSON_AND_ORGANIZATION ( #1, #61 ) ;
#19 = DIRECTION ( 'NONE',  ( 9.221418403196347497E-17, 1.000000000000000000, -0.000000000000000000 ) ) ;
#20 = EDGE_CURVE ( 'NONE', #124, #9, #110, .T. ) ;
#21 = APPROVAL_ROLE ( '' ) ;
#22 = PERSON_AND_ORGANIZATION ( #1, #61 ) ;
#23 = CYLINDRICAL_SURFACE ( 'NONE', #70, 15.00000000000000000 ) ;
#24 = CC_DESIGN_APPROVAL ( #135, ( #16 ) ) ;
#25 = CARTESIAN_POINT ( 'NONE',  ( -0.002703305825799833060, -26.32999988757135412, -3.310594826679184628E-19 ) ) ;
#26 = ADVANCED_FACE ( 'NONE', ( #69 ), #28, .T. ) ;
#27 = DIRECTION ( 'NONE',  ( 9.221418403196347497E-17, 1.000000000000000000, -0.000000000000000000 ) ) ;
#28 = PLANE ( 'NONE',  #145 ) ;
#29 = FACE_OUTER_BOUND ( 'NONE', #86, .T. ) ;
#30 = LOCAL_TIME ( 9, 13, 12.00000000000000000, #180 ) ;
#31 = SHAPE_DEFINITION_REPRESENTATION ( #140, #95 ) ;
#32 = DIRECTION ( 'NONE',  ( 9.221418403196347497E-17, 1.000000000000000000, -0.000000000000000000 ) ) ;
#33 = APPROVAL_STATUS ( 'not_yet_approved' ) ;
#34 = DIRECTION ( 'NONE',  ( -1.000000000000000000, 9.221418403196347497E-17, 0.000000000000000000 ) ) ;
#35 = PERSON_AND_ORGANIZATION_ROLE ( 'design_supplier' ) ;
#36 = MANIFOLD_SOLID_BREP ( 'Ðý×ª1', #201 ) ;
#37 = DATE_AND_TIME ( #162, #197 ) ;
#38 = MECHANICAL_CONTEXT ( 'NONE', #93, 'mechanical' ) ;
#39 = ORIENTED_EDGE ( 'NONE', *, *, #99, .T. ) ;
#40 = AXIS2_PLACEMENT_3D ( 'NONE', #115, #141, #163 ) ;
#41 = CARTESIAN_POINT ( 'NONE',  ( -2.428019943304451922E-15, -26.32999988757135412, 0.000000000000000000 ) ) ;
#42 = VERTEX_POINT ( 'NONE', #185 ) ;
#43 = VERTEX_POINT ( 'NONE', #84 ) ;
#44 = PRODUCT_RELATED_PRODUCT_CATEGORY ( 'detail', '', ( #173 ) ) ;
#45 = CC_DESIGN_DATE_AND_TIME_ASSIGNMENT ( #37, #143, ( #172 ) ) ;
#46 = ADVANCED_FACE ( 'NONE', ( #29 ), #174, .T. ) ;
#47 = CARTESIAN_POINT ( 'NONE',  ( 2.305354600799084779E-16, 2.499999999999997335, 0.000000000000000000 ) ) ;
#48 = PERSON_AND_ORGANIZATION_ROLE ( 'classification_officer' ) ;
#49 = DIRECTION ( 'NONE',  ( -1.000000000000000000, 9.221418403196347497E-17, 0.000000000000000000 ) ) ;
#50 = CC_DESIGN_PERSON_AND_ORGANIZATION_ASSIGNMENT ( #78, #48, ( #172 ) ) ;
#51 = DATE_TIME_ROLE ( 'creation_date' ) ;
#52 = CARTESIAN_POINT ( 'NONE',  ( 0.000000000000000000, 0.000000000000000000, 0.000000000000000000 ) ) ;
#53 = APPLICATION_PROTOCOL_DEFINITION ( 'international standard', 'config_control_design', 1994, #93 ) ;
#54 = CALENDAR_DATE ( 2024, 9, 5 ) ;
#55 = APPLICATION_PROTOCOL_DEFINITION ( 'international standard', 'config_control_design', 1994, #109 ) ;
#56 = DIRECTION ( 'NONE',  ( -9.221418403196347497E-17, -1.000000000000000000, 0.000000000000000000 ) ) ;
#57 = EDGE_LOOP ( 'NONE', ( #196, #183 ) ) ;
#58 = DIRECTION ( 'NONE',  ( 9.221418403196347497E-17, 1.000000000000000000, -0.000000000000000000 ) ) ;
#59 = DIRECTION ( 'NONE',  ( 9.221418403196347497E-17, 1.000000000000000000, -0.000000000000000000 ) ) ;
#60 = APPROVAL ( #128, 'Î´Ö¸¶¨' ) ;
#61 = ORGANIZATION ( 'Î´Ö¸¶¨', 'Î´Ö¸¶¨', '' ) ;
#62 = CALENDAR_DATE ( 2024, 9, 5 ) ;
#63 = DIRECTION ( 'NONE',  ( 9.221418403196347497E-17, 1.000000000000000000, -0.000000000000000000 ) ) ;
#64 = CIRCLE ( 'NONE', #139, 32.50000000000000711 ) ;
#65 = CARTESIAN_POINT ( 'NONE',  ( -9.629649721936179265E-32, -1.734723475976807094E-15, 0.000000000000000000 ) ) ;
#66 = VECTOR ( 'NONE', #32, 1000.000000000000000 ) ;
#67 = FACE_OUTER_BOUND ( 'NONE', #123, .T. ) ;
#68 = CARTESIAN_POINT ( 'NONE',  ( -15.00000000000000000, -3.515107154973549946E-16, 0.000000000000000000 ) ) ;
#69 = FACE_OUTER_BOUND ( 'NONE', #57, .T. ) ;
#70 = AXIS2_PLACEMENT_3D ( 'NONE', #10, #58, #169 ) ;
#71 = ORIENTED_EDGE ( 'NONE', *, *, #149, .T. ) ;
#72 = CC_DESIGN_PERSON_AND_ORGANIZATION_ASSIGNMENT ( #18, #116, ( #77 ) ) ;
#73 = DIRECTION ( 'NONE',  ( -1.000000000000000000, 1.156482317317871478E-16, 0.000000000000000000 ) ) ;
#74 = AXIS2_PLACEMENT_3D ( 'NONE', #41, #106, #120 ) ;
#75 = CC_DESIGN_PERSON_AND_ORGANIZATION_ASSIGNMENT ( #17, #157, ( #16 ) ) ;
#76 = TOROIDAL_SURFACE ( 'NONE', #11, -0.002703305825797405314, 32.50000000000000711 ) ;
#77 = PRODUCT_DEFINITION_FORMATION_WITH_SPECIFIED_SOURCE ( 'ÈÎºÎ', '', #173, .NOT_KNOWN. ) ;
#78 = PERSON_AND_ORGANIZATION ( #1, #61 ) ;
#79 = CC_DESIGN_PERSON_AND_ORGANIZATION_ASSIGNMENT ( #182, #35, ( #77 ) ) ;
#80 =( LENGTH_UNIT ( ) NAMED_UNIT ( * ) SI_UNIT ( .MILLI., .METRE. ) );
#81 = PERSON_AND_ORGANIZATION ( #1, #61 ) ;
#82 = PERSON_AND_ORGANIZATION ( #1, #61 ) ;
#83 = APPROVAL_STATUS ( 'not_yet_approved' ) ;
#84 = CARTESIAN_POINT ( 'NONE',  ( 5.689615154772147024E-16, 6.169999999999999929, 0.000000000000000000 ) ) ;
#85 = EDGE_LOOP ( 'NONE', ( #171, #154, #168, #150 ) ) ;
#86 = EDGE_LOOP ( 'NONE', ( #133, #39, #91 ) ) ;
#87 = DIRECTION ( 'NONE',  ( 1.000000000000000000, 0.000000000000000000, 1.224646799147353454E-16 ) ) ;
#88 = EDGE_CURVE ( 'NONE', #9, #186, #107, .T. ) ;
#89 = ORIENTED_EDGE ( 'NONE', *, *, #137, .F. ) ;
#90 = CARTESIAN_POINT ( 'NONE',  ( -15.00000000000000000, 6.170000000000001705, 0.000000000000000000 ) ) ;
#91 = ORIENTED_EDGE ( 'NONE', *, *, #190, .F. ) ;
#92 = LOCAL_TIME ( 9, 13, 12.00000000000000000, #155 ) ;
#93 = APPLICATION_CONTEXT ( 'configuration controlled 3d designs of mechanical parts and assemblies' ) ;
#94 = VECTOR ( 'NONE', #59, 1000.000000000000000 ) ;
#95 = ADVANCED_BREP_SHAPE_REPRESENTATION ( '100550', ( #36, #184 ), #191 ) ;
#96 = CIRCLE ( 'NONE', #13, 15.00000000000000000 ) ;
#97 = CALENDAR_DATE ( 2024, 9, 5 ) ;
#98 =( NAMED_UNIT ( * ) SI_UNIT ( $, .STERADIAN. ) SOLID_ANGLE_UNIT ( ) );
#99 = EDGE_CURVE ( 'NONE', #186, #43, #64, .T. ) ;
#100 = DATE_AND_TIME ( #54, #30 ) ;
#101 = CARTESIAN_POINT ( 'NONE',  ( -9.629649721936179265E-32, -1.734723475976807094E-15, 0.000000000000000000 ) ) ;
#102 = COORDINATED_UNIVERSAL_TIME_OFFSET ( 8, 0, .AHEAD. ) ;
#103 = ADVANCED_FACE ( 'NONE', ( #151 ), #23, .T. ) ;
#104 = ORIENTED_EDGE ( 'NONE', *, *, #153, .T. ) ;
#105 = APPROVAL_PERSON_ORGANIZATION ( #22, #135, #146 ) ;
#106 = DIRECTION ( 'NONE',  ( 9.221418403196347497E-17, 1.000000000000000000, -0.000000000000000000 ) ) ;
#107 = CIRCLE ( 'NONE', #15, 15.00000000000000000 ) ;
#108 = CARTESIAN_POINT ( 'NONE',  ( -6.377591802510620288E-32, -6.916063802397260253E-16, 0.000000000000000000 ) ) ;
#109 = APPLICATION_CONTEXT ( 'configuration controlled 3d designs of mechanical parts and assemblies' ) ;
#110 = LINE ( 'NONE', #90, #94 ) ;
#111 = APPROVAL_PERSON_ORGANIZATION ( #130, #60, #21 ) ;
#112 = AXIS2_PLACEMENT_3D ( 'NONE', #101, #158, #49 ) ;
#113 = ADVANCED_FACE ( 'NONE', ( #132 ), #147, .T. ) ;
#114 = COORDINATED_UNIVERSAL_TIME_OFFSET ( 8, 0, .AHEAD. ) ;
#115 = CARTESIAN_POINT ( 'NONE',  ( 0.002703305825794977135, -26.32999988757135412, 0.000000000000000000 ) ) ;
#116 = PERSON_AND_ORGANIZATION_ROLE ( 'creator' ) ;
#117 = DIRECTION ( 'NONE',  ( -1.000000000000000000, 9.221418403196347497E-17, 0.000000000000000000 ) ) ;
#118 = CARTESIAN_POINT ( 'NONE',  ( 15.00000000000000000, 6.169999999999998153, 1.836970198721029589E-15 ) ) ;
#119 = APPROVAL_DATE_TIME ( #131, #135 ) ;
#120 = DIRECTION ( 'NONE',  ( -1.000000000000000000, 9.221418403196347497E-17, 0.000000000000000000 ) ) ;
#121 = EDGE_LOOP ( 'NONE', ( #89, #104, #188, #195 ) ) ;
#122 = APPROVAL_PERSON_ORGANIZATION ( #81, #170, #4 ) ;
#123 = EDGE_LOOP ( 'NONE', ( #148, #71, #136 ) ) ;
#124 = VERTEX_POINT ( 'NONE', #68 ) ;
#125 = CC_DESIGN_PERSON_AND_ORGANIZATION_ASSIGNMENT ( #82, #144, ( #173 ) ) ;
#126 = ADVANCED_FACE ( 'NONE', ( #67 ), #76, .T. ) ;
#127 = CIRCLE ( 'NONE', #40, 32.50000000000000711 ) ;
#128 = APPROVAL_STATUS ( 'not_yet_approved' ) ;
#129 = CARTESIAN_POINT ( 'NONE',  ( 15.00000000000000178, 2.499999999999997335, 1.836970198721029983E-15 ) ) ;
#130 = PERSON_AND_ORGANIZATION ( #1, #61 ) ;
#131 = DATE_AND_TIME ( #7, #92 ) ;
#132 = FACE_OUTER_BOUND ( 'NONE', #121, .T. ) ;
#133 = ORIENTED_EDGE ( 'NONE', *, *, #88, .T. ) ;
#134 = CC_DESIGN_APPROVAL ( #60, ( #172 ) ) ;
#135 = APPROVAL ( #83, 'Î´Ö¸¶¨' ) ;
#136 = ORIENTED_EDGE ( 'NONE', *, *, #190, .T. ) ;
#137 = EDGE_CURVE ( 'NONE', #42, #186, #176, .T. ) ;
#138 = LOCAL_TIME ( 9, 13, 12.00000000000000000, #114 ) ;
#139 = AXIS2_PLACEMENT_3D ( 'NONE', #25, #164, #87 ) ;
#140 = PRODUCT_DEFINITION_SHAPE ( 'NONE', 'NONE',  #16 ) ;
#141 = DIRECTION ( 'NONE',  ( -0.000000000000000000, 0.000000000000000000, -1.000000000000000000 ) ) ;
#142 = CC_DESIGN_APPROVAL ( #170, ( #77 ) ) ;
#143 = DATE_TIME_ROLE ( 'classification_date' ) ;
#144 = PERSON_AND_ORGANIZATION_ROLE ( 'design_owner' ) ;
#145 = AXIS2_PLACEMENT_3D ( 'NONE', #108, #56, #12 ) ;
#146 = APPROVAL_ROLE ( '' ) ;
#147 = CYLINDRICAL_SURFACE ( 'NONE', #156, 15.00000000000000000 ) ;
#148 = ORIENTED_EDGE ( 'NONE', *, *, #99, .F. ) ;
#149 = EDGE_CURVE ( 'NONE', #186, #9, #96, .T. ) ;
#150 = ORIENTED_EDGE ( 'NONE', *, *, #20, .F. ) ;
#151 = FACE_OUTER_BOUND ( 'NONE', #85, .T. ) ;
#152 = CARTESIAN_POINT ( 'NONE',  ( 5.689615154772147024E-16, 6.169999999999999929, 0.000000000000000000 ) ) ;
#153 = EDGE_CURVE ( 'NONE', #42, #124, #14, .T. ) ;
#154 = ORIENTED_EDGE ( 'NONE', *, *, #137, .T. ) ;
#155 = COORDINATED_UNIVERSAL_TIME_OFFSET ( 8, 0, .AHEAD. ) ;
#156 = AXIS2_PLACEMENT_3D ( 'NONE', #152, #8, #73 ) ;
#157 = PERSON_AND_ORGANIZATION_ROLE ( 'creator' ) ;
#158 = DIRECTION ( 'NONE',  ( 9.221418403196347497E-17, 1.000000000000000000, -0.000000000000000000 ) ) ;
#159 = UNCERTAINTY_MEASURE_WITH_UNIT (LENGTH_MEASURE( 1.000000000000000082E-05 ), #80, 'distance_accuracy_value', 'NONE');
#160 = DATE_AND_TIME ( #97, #138 ) ;
#161 = DIRECTION ( 'NONE',  ( 1.000000000000000000, 0.000000000000000000, 0.000000000000000000 ) ) ;
#162 = CALENDAR_DATE ( 2024, 9, 5 ) ;
#163 = DIRECTION ( 'NONE',  ( -1.000000000000000000, 0.000000000000000000, 0.000000000000000000 ) ) ;
#164 = DIRECTION ( 'NONE',  ( -1.224646799147353207E-16, 1.129298053107290347E-32, 1.000000000000000000 ) ) ;
#165 = CIRCLE ( 'NONE', #112, 15.00000000000000000 ) ;
#166 = DIRECTION ( 'NONE',  ( -1.000000000000000000, 8.673617379884035472E-17, 0.000000000000000000 ) ) ;
#167 = DESIGN_CONTEXT ( 'detailed design', #109, 'design' ) ;
#168 = ORIENTED_EDGE ( 'NONE', *, *, #88, .F. ) ;
#169 = DIRECTION ( 'NONE',  ( -1.000000000000000000, 1.156482317317871478E-16, 0.000000000000000000 ) ) ;
#170 = APPROVAL ( #33, 'Î´Ö¸¶¨' ) ;
#171 = ORIENTED_EDGE ( 'NONE', *, *, #189, .T. ) ;
#172 = SECURITY_CLASSIFICATION ( '', '', #5 ) ;
#173 = PRODUCT ( '100550', '100550', '', ( #38 ) ) ;
#174 = TOROIDAL_SURFACE ( 'NONE', #74, -0.002703305825797405314, 32.50000000000000711 ) ;
#175 = DATE_AND_TIME ( #62, #2 ) ;
#176 = LINE ( 'NONE', #118, #66 ) ;
#177 = APPROVAL_DATE_TIME ( #160, #60 ) ;
#178 = DIRECTION ( 'NONE',  ( 9.221418403196347497E-17, 1.000000000000000000, -0.000000000000000000 ) ) ;
#179 = CC_DESIGN_DATE_AND_TIME_ASSIGNMENT ( #175, #51, ( #16 ) ) ;
#180 = COORDINATED_UNIVERSAL_TIME_OFFSET ( 8, 0, .AHEAD. ) ;
#181 =( NAMED_UNIT ( * ) PLANE_ANGLE_UNIT ( ) SI_UNIT ( $, .RADIAN. ) );
#182 = PERSON_AND_ORGANIZATION ( #1, #61 ) ;
#183 = ORIENTED_EDGE ( 'NONE', *, *, #153, .F. ) ;
#184 = AXIS2_PLACEMENT_3D ( 'NONE', #52, #3, #161 ) ;
#185 = CARTESIAN_POINT ( 'NONE',  ( 15.00000000000000000, -3.117936236456259145E-15, 1.836970198721029589E-15 ) ) ;
#186 = VERTEX_POINT ( 'NONE', #129 ) ;
#187 = CC_DESIGN_SECURITY_CLASSIFICATION ( #172, ( #77 ) ) ;
#188 = ORIENTED_EDGE ( 'NONE', *, *, #20, .T. ) ;
#189 = EDGE_CURVE ( 'NONE', #124, #42, #165, .T. ) ;
#190 = EDGE_CURVE ( 'NONE', #9, #43, #127, .T. ) ;
#191 =( GEOMETRIC_REPRESENTATION_CONTEXT ( 3 ) GLOBAL_UNCERTAINTY_ASSIGNED_CONTEXT ( ( #159 ) ) GLOBAL_UNIT_ASSIGNED_CONTEXT ( ( #80, #181, #98 ) ) REPRESENTATION_CONTEXT ( 'NONE', 'WORKASPACE' ) );
#192 = APPROVAL_DATE_TIME ( #100, #170 ) ;
#193 = CARTESIAN_POINT ( 'NONE',  ( -2.428019943304451922E-15, -26.32999988757135412, 0.000000000000000000 ) ) ;
#194 = COORDINATED_UNIVERSAL_TIME_OFFSET ( 8, 0, .AHEAD. ) ;
#195 = ORIENTED_EDGE ( 'NONE', *, *, #149, .F. ) ;
#196 = ORIENTED_EDGE ( 'NONE', *, *, #189, .F. ) ;
#197 = LOCAL_TIME ( 9, 13, 12.00000000000000000, #102 ) ;
#198 = CARTESIAN_POINT ( 'NONE',  ( 2.305354600799084779E-16, 2.499999999999997335, 0.000000000000000000 ) ) ;
#199 = CARTESIAN_POINT ( 'NONE',  ( -15.00000000000000000, 2.499999999999998668, 0.000000000000000000 ) ) ;
#200 = AXIS2_PLACEMENT_3D ( 'NONE', #65, #178, #117 ) ;
#201 = CLOSED_SHELL ( 'NONE', ( #103, #46, #126, #26, #113 ) ) ;
ENDSEC;
END-ISO-10303-21;
