ISO-10303-21;
HEADER;
FILE_DESCRIPTION (( 'STEP AP203' ),
    '1' );
FILE_NAME ('100554.STEP',
    '2024-05-09T01:27:18',
    ( '' ),
    ( '' ),
    'SwSTEP 2.0',
    'SolidWorks 2020',
    '' );
FILE_SCHEMA (( 'CONFIG_CONTROL_DESIGN' ));
ENDSEC;

DATA;
#1 = CARTESIAN_POINT ( 'NONE',  ( 0.000000000000000000, 3.870000000000000107, 15.00000000000000000 ) ) ;
#2 = CARTESIAN_POINT ( 'NONE',  ( 1.836970198721030378E-15, 2.500000000000000444, -15.00000000000000355 ) ) ;
#3 = PERSON_AND_ORGANIZATION_ROLE ( 'creator' ) ;
#4 = COORDINATED_UNIVERSAL_TIME_OFFSET ( 8, 0, .AHEAD. ) ;
#5 = ORGANIZATION ( 'Î´Ö¸¶¨', 'Î´Ö¸¶¨', '' ) ;
#6 = LOCAL_TIME ( 9, 27, 18.00000000000000000, #4 ) ;
#7 = EDGE_LOOP ( 'NONE', ( #62, #73, #27, #128 ) ) ;
#8 = CC_DESIGN_APPROVAL ( #92, ( #131 ) ) ;
#9 = APPROVAL_DATE_TIME ( #24, #67 ) ;
#10 = CARTESIAN_POINT ( 'NONE',  ( 0.000000000000000000, -78.74999833166459950, 0.000000000000000000 ) ) ;
#11 = ADVANCED_FACE ( 'NONE', ( #100 ), #136, .T. ) ;
#12 = CLOSED_SHELL ( 'NONE', ( #193, #11, #16, #55, #80 ) ) ;
#13 = LOCAL_TIME ( 9, 27, 18.00000000000000000, #143 ) ;
#14 = CARTESIAN_POINT ( 'NONE',  ( 0.000000000000000000, -1.734723475976807094E-15, 15.00000000000000000 ) ) ;
#15 = CYLINDRICAL_SURFACE ( 'NONE', #97, 15.00000000000000000 ) ;
#16 = ADVANCED_FACE ( 'NONE', ( #160 ), #102, .T. ) ;
#17 = CARTESIAN_POINT ( 'NONE',  ( 0.000000000000000000, 3.870000000000000107, 0.000000000000000000 ) ) ;
#18 = CARTESIAN_POINT ( 'NONE',  ( 2.033340562693723258E-18, -78.74999833166459950, -0.01660348570795607687 ) ) ;
#19 = PERSON_AND_ORGANIZATION_ROLE ( 'classification_officer' ) ;
#20 = CALENDAR_DATE ( 2024, 9, 5 ) ;
#21 = CC_DESIGN_PERSON_AND_ORGANIZATION_ASSIGNMENT ( #125, #19, ( #111 ) ) ;
#22 = APPROVAL_STATUS ( 'not_yet_approved' ) ;
#23 = CALENDAR_DATE ( 2024, 9, 5 ) ;
#24 = DATE_AND_TIME ( #20, #82 ) ;
#25 = ORIENTED_EDGE ( 'NONE', *, *, #33, .T. ) ;
#26 = EDGE_CURVE ( 'NONE', #113, #46, #30, .T. ) ;
#27 = ORIENTED_EDGE ( 'NONE', *, *, #180, .T. ) ;
#28 = AXIS2_PLACEMENT_3D ( 'NONE', #190, #149, #103 ) ;
#29 = CC_DESIGN_PERSON_AND_ORGANIZATION_ASSIGNMENT ( #181, #159, ( #133 ) ) ;
#30 = CIRCLE ( 'NONE', #58, 15.00000000000000000 ) ;
#31 = PERSON ( 'Î´Ö¸¶¨', 'Î´Ö¸¶¨', 'Î´Ö¸¶¨', ('Î´Ö¸¶¨'), ('Î´Ö¸¶¨'), ('Î´Ö¸¶¨') ) ;
#32 = CARTESIAN_POINT ( 'NONE',  ( 0.000000000000000000, -1.734723475976807094E-15, 0.000000000000000000 ) ) ;
#33 = EDGE_CURVE ( 'NONE', #113, #172, #106, .T. ) ;
#34 = PRODUCT_DEFINITION_SHAPE ( 'NONE', 'NONE',  #131 ) ;
#35 = DIRECTION ( 'NONE',  ( -0.000000000000000000, 1.000000000000000000, -0.000000000000000000 ) ) ;
#36 = APPROVAL_PERSON_ORGANIZATION ( #198, #92, #127 ) ;
#37 = CC_DESIGN_APPROVAL ( #196, ( #111 ) ) ;
#38 = APPROVAL_PERSON_ORGANIZATION ( #98, #67, #41 ) ;
#39 = DIRECTION ( 'NONE',  ( -0.000000000000000000, 1.000000000000000000, -0.000000000000000000 ) ) ;
#40 = CARTESIAN_POINT ( 'NONE',  ( 0.000000000000000000, 0.000000000000000000, 0.000000000000000000 ) ) ;
#41 = APPROVAL_ROLE ( '' ) ;
#42 = DATE_AND_TIME ( #142, #6 ) ;
#43 = ORIENTED_EDGE ( 'NONE', *, *, #187, .F. ) ;
#44 = PERSON_AND_ORGANIZATION_ROLE ( 'design_owner' ) ;
#45 = DIRECTION ( 'NONE',  ( -0.000000000000000000, 1.000000000000000000, -0.000000000000000000 ) ) ;
#46 = VERTEX_POINT ( 'NONE', #14 ) ;
#47 = CARTESIAN_POINT ( 'NONE',  ( 0.000000000000000000, 2.499999999999998224, 0.000000000000000000 ) ) ;
#48 = DIRECTION ( 'NONE',  ( -0.000000000000000000, 1.000000000000000000, -0.000000000000000000 ) ) ;
#49 = FACE_OUTER_BOUND ( 'NONE', #76, .T. ) ;
#50 = DIRECTION ( 'NONE',  ( 1.224646799147353207E-16, 0.000000000000000000, -1.000000000000000000 ) ) ;
#51 = LOCAL_TIME ( 9, 27, 18.00000000000000000, #151 ) ;
#52 = APPROVAL_DATE_TIME ( #42, #196 ) ;
#53 = PERSON_AND_ORGANIZATION ( #31, #5 ) ;
#54 = AXIS2_PLACEMENT_3D ( 'NONE', #18, #139, #50 ) ;
#55 = ADVANCED_FACE ( 'NONE', ( #176 ), #179, .T. ) ;
#56 = DIRECTION ( 'NONE',  ( 0.000000000000000000, 0.000000000000000000, 1.000000000000000000 ) ) ;
#57 = ORIENTED_EDGE ( 'NONE', *, *, #101, .F. ) ;
#58 = AXIS2_PLACEMENT_3D ( 'NONE', #169, #59, #88 ) ;
#59 = DIRECTION ( 'NONE',  ( -0.000000000000000000, 1.000000000000000000, -0.000000000000000000 ) ) ;
#60 = APPROVAL_STATUS ( 'not_yet_approved' ) ;
#61 = ORIENTED_EDGE ( 'NONE', *, *, #118, .F. ) ;
#62 = ORIENTED_EDGE ( 'NONE', *, *, #33, .F. ) ;
#63 = DIRECTION ( 'NONE',  ( 0.000000000000000000, 0.000000000000000000, 1.000000000000000000 ) ) ;
#64 = DIRECTION ( 'NONE',  ( 0.000000000000000000, 0.000000000000000000, 1.000000000000000000 ) ) ;
#65 = DIRECTION ( 'NONE',  ( 0.000000000000000000, 0.000000000000000000, 1.000000000000000000 ) ) ;
#66 = CARTESIAN_POINT ( 'NONE',  ( 0.000000000000000000, 2.500000000000000444, 15.00000000000000355 ) ) ;
#67 = APPROVAL ( #22, 'Î´Ö¸¶¨' ) ;
#68 = CARTESIAN_POINT ( 'NONE',  ( 0.000000000000000000, 3.870000000000000107, 0.000000000000000000 ) ) ;
#69 = FACE_OUTER_BOUND ( 'NONE', #7, .T. ) ;
#70 = SECURITY_CLASSIFICATION_LEVEL ( 'unclassified' ) ;
#71 = DATE_AND_TIME ( #122, #13 ) ;
#72 = PERSON_AND_ORGANIZATION_ROLE ( 'creator' ) ;
#73 = ORIENTED_EDGE ( 'NONE', *, *, #26, .T. ) ;
#74 = CIRCLE ( 'NONE', #174, 15.00000000000000000 ) ;
#75 = MECHANICAL_CONTEXT ( 'NONE', #201, 'mechanical' ) ;
#76 = EDGE_LOOP ( 'NONE', ( #130, #25, #57, #171 ) ) ;
#77 = DIRECTION ( 'NONE',  ( -0.000000000000000000, 1.000000000000000000, -0.000000000000000000 ) ) ;
#78 = APPLICATION_CONTEXT ( 'configuration controlled 3d designs of mechanical parts and assemblies' ) ;
#79 = VERTEX_POINT ( 'NONE', #68 ) ;
#80 = ADVANCED_FACE ( 'NONE', ( #69 ), #15, .T. ) ;
#81 = ADVANCED_BREP_SHAPE_REPRESENTATION ( '100554', ( #104, #132 ), #120 ) ;
#82 = LOCAL_TIME ( 9, 27, 18.00000000000000000, #167 ) ;
#83 = DIRECTION ( 'NONE',  ( -0.000000000000000000, 1.000000000000000000, -0.000000000000000000 ) ) ;
#84 = CC_DESIGN_PERSON_AND_ORGANIZATION_ASSIGNMENT ( #94, #3, ( #133 ) ) ;
#85 = DIRECTION ( 'NONE',  ( 0.000000000000000000, -0.000000000000000000, -1.000000000000000000 ) ) ;
#86 = CIRCLE ( 'NONE', #54, 82.62000000000000455 ) ;
#87 = AXIS2_PLACEMENT_3D ( 'NONE', #166, #137, #85 ) ;
#88 = DIRECTION ( 'NONE',  ( 0.000000000000000000, 0.000000000000000000, 1.000000000000000000 ) ) ;
#89 = CARTESIAN_POINT ( 'NONE',  ( 1.836970198721029589E-15, 3.870000000000000107, -15.00000000000000000 ) ) ;
#90 = APPLICATION_PROTOCOL_DEFINITION ( 'international standard', 'config_control_design', 1994, #78 ) ;
#91 = SHAPE_DEFINITION_REPRESENTATION ( #34, #81 ) ;
#92 = APPROVAL ( #60, 'Î´Ö¸¶¨' ) ;
#93 = PERSON_AND_ORGANIZATION ( #31, #5 ) ;
#94 = PERSON_AND_ORGANIZATION ( #31, #5 ) ;
#95 = DATE_AND_TIME ( #23, #156 ) ;
#96 = ORIENTED_EDGE ( 'NONE', *, *, #154, .F. ) ;
#97 = AXIS2_PLACEMENT_3D ( 'NONE', #17, #35, #64 ) ;
#98 = PERSON_AND_ORGANIZATION ( #31, #5 ) ;
#99 = ORIENTED_EDGE ( 'NONE', *, *, #145, .T. ) ;
#100 = FACE_OUTER_BOUND ( 'NONE', #109, .T. ) ;
#101 = EDGE_CURVE ( 'NONE', #199, #172, #195, .T. ) ;
#102 = TOROIDAL_SURFACE ( 'NONE', #126, 0.01660348570795607687, 82.62000000000000455 ) ;
#103 = DIRECTION ( 'NONE',  ( 0.000000000000000000, 0.000000000000000000, 1.000000000000000000 ) ) ;
#104 = MANIFOLD_SOLID_BREP ( 'Ðý×ª1', #12 ) ;
#105 = CYLINDRICAL_SURFACE ( 'NONE', #114, 15.00000000000000000 ) ;
#106 = LINE ( 'NONE', #89, #175 ) ;
#107 = COORDINATED_UNIVERSAL_TIME_OFFSET ( 8, 0, .AHEAD. ) ;
#108 = UNCERTAINTY_MEASURE_WITH_UNIT (LENGTH_MEASURE( 1.000000000000000082E-05 ), #119, 'distance_accuracy_value', 'NONE');
#109 = EDGE_LOOP ( 'NONE', ( #110, #158, #96 ) ) ;
#110 = ORIENTED_EDGE ( 'NONE', *, *, #101, .T. ) ;
#111 = SECURITY_CLASSIFICATION ( '', '', #70 ) ;
#112 = DIRECTION ( 'NONE',  ( 0.000000000000000000, 0.000000000000000000, 1.000000000000000000 ) ) ;
#113 = VERTEX_POINT ( 'NONE', #150 ) ;
#114 = AXIS2_PLACEMENT_3D ( 'NONE', #163, #117, #146 ) ;
#115 = AXIS2_PLACEMENT_3D ( 'NONE', #32, #48, #65 ) ;
#116 = CARTESIAN_POINT ( 'NONE',  ( 0.000000000000000000, 2.499999999999998224, 0.000000000000000000 ) ) ;
#117 = DIRECTION ( 'NONE',  ( -0.000000000000000000, 1.000000000000000000, -0.000000000000000000 ) ) ;
#118 = EDGE_CURVE ( 'NONE', #46, #113, #178, .T. ) ;
#119 =( LENGTH_UNIT ( ) NAMED_UNIT ( * ) SI_UNIT ( .MILLI., .METRE. ) );
#120 =( GEOMETRIC_REPRESENTATION_CONTEXT ( 3 ) GLOBAL_UNCERTAINTY_ASSIGNED_CONTEXT ( ( #108 ) ) GLOBAL_UNIT_ASSIGNED_CONTEXT ( ( #119, #165, #121 ) ) REPRESENTATION_CONTEXT ( 'NONE', 'WORKASPACE' ) );
#121 =( NAMED_UNIT ( * ) SI_UNIT ( $, .STERADIAN. ) SOLID_ANGLE_UNIT ( ) );
#122 = CALENDAR_DATE ( 2024, 9, 5 ) ;
#123 = AXIS2_PLACEMENT_3D ( 'NONE', #47, #189, #148 ) ;
#124 = APPROVAL_STATUS ( 'not_yet_approved' ) ;
#125 = PERSON_AND_ORGANIZATION ( #31, #5 ) ;
#126 = AXIS2_PLACEMENT_3D ( 'NONE', #129, #45, #112 ) ;
#127 = APPROVAL_ROLE ( '' ) ;
#128 = ORIENTED_EDGE ( 'NONE', *, *, #145, .F. ) ;
#129 = CARTESIAN_POINT ( 'NONE',  ( 0.000000000000000000, -78.74999833166459950, 0.000000000000000000 ) ) ;
#130 = ORIENTED_EDGE ( 'NONE', *, *, #118, .T. ) ;
#131 = PRODUCT_DEFINITION ( 'Î´Öª', '', #133, #197 ) ;
#132 = AXIS2_PLACEMENT_3D ( 'NONE', #40, #56, #153 ) ;
#133 = PRODUCT_DEFINITION_FORMATION_WITH_SPECIFIED_SOURCE ( 'ÈÎºÎ', '', #138, .NOT_KNOWN. ) ;
#134 = LINE ( 'NONE', #1, #157 ) ;
#135 = DIRECTION ( 'NONE',  ( -0.000000000000000000, 1.000000000000000000, -0.000000000000000000 ) ) ;
#136 = TOROIDAL_SURFACE ( 'NONE', #182, 0.01660348570795607687, 82.62000000000000455 ) ;
#137 = DIRECTION ( 'NONE',  ( 0.000000000000000000, -1.000000000000000000, 0.000000000000000000 ) ) ;
#138 = PRODUCT ( '100554', '100554', '', ( #75 ) ) ;
#139 = DIRECTION ( 'NONE',  ( 1.000000000000000000, 0.000000000000000000, 1.224646799147353207E-16 ) ) ;
#140 = APPROVAL_DATE_TIME ( #95, #92 ) ;
#141 = CC_DESIGN_DATE_AND_TIME_ASSIGNMENT ( #170, #168, ( #131 ) ) ;
#142 = CALENDAR_DATE ( 2024, 9, 5 ) ;
#143 = COORDINATED_UNIVERSAL_TIME_OFFSET ( 8, 0, .AHEAD. ) ;
#144 = ORIENTED_EDGE ( 'NONE', *, *, #154, .T. ) ;
#145 = EDGE_CURVE ( 'NONE', #172, #199, #74, .T. ) ;
#146 = DIRECTION ( 'NONE',  ( 0.000000000000000000, 0.000000000000000000, 1.000000000000000000 ) ) ;
#147 = CC_DESIGN_SECURITY_CLASSIFICATION ( #111, ( #133 ) ) ;
#148 = DIRECTION ( 'NONE',  ( 0.000000000000000000, 0.000000000000000000, 1.000000000000000000 ) ) ;
#149 = DIRECTION ( 'NONE',  ( -1.000000000000000000, 0.000000000000000000, 0.000000000000000000 ) ) ;
#150 = CARTESIAN_POINT ( 'NONE',  ( 1.836970198721029589E-15, -1.734723475976807094E-15, -15.00000000000000000 ) ) ;
#151 = COORDINATED_UNIVERSAL_TIME_OFFSET ( 8, 0, .AHEAD. ) ;
#152 = APPROVAL_ROLE ( '' ) ;
#153 = DIRECTION ( 'NONE',  ( 1.000000000000000000, 0.000000000000000000, 0.000000000000000000 ) ) ;
#154 = EDGE_CURVE ( 'NONE', #199, #79, #200, .T. ) ;
#155 = EDGE_LOOP ( 'NONE', ( #61, #184 ) ) ;
#156 = LOCAL_TIME ( 9, 27, 18.00000000000000000, #107 ) ;
#157 = VECTOR ( 'NONE', #83, 1000.000000000000000 ) ;
#158 = ORIENTED_EDGE ( 'NONE', *, *, #187, .T. ) ;
#159 = PERSON_AND_ORGANIZATION_ROLE ( 'design_supplier' ) ;
#160 = FACE_OUTER_BOUND ( 'NONE', #186, .T. ) ;
#161 = CC_DESIGN_PERSON_AND_ORGANIZATION_ASSIGNMENT ( #53, #72, ( #131 ) ) ;
#162 = CC_DESIGN_PERSON_AND_ORGANIZATION_ASSIGNMENT ( #194, #44, ( #138 ) ) ;
#163 = CARTESIAN_POINT ( 'NONE',  ( 0.000000000000000000, 3.870000000000000107, 0.000000000000000000 ) ) ;
#164 = PRODUCT_RELATED_PRODUCT_CATEGORY ( 'detail', '', ( #138 ) ) ;
#165 =( NAMED_UNIT ( * ) PLANE_ANGLE_UNIT ( ) SI_UNIT ( $, .RADIAN. ) );
#166 = CARTESIAN_POINT ( 'NONE',  ( 0.000000000000000000, -9.184850993605147944E-16, 0.000000000000000000 ) ) ;
#167 = COORDINATED_UNIVERSAL_TIME_OFFSET ( 8, 0, .AHEAD. ) ;
#168 = DATE_TIME_ROLE ( 'creation_date' ) ;
#169 = CARTESIAN_POINT ( 'NONE',  ( 0.000000000000000000, -1.734723475976807094E-15, 0.000000000000000000 ) ) ;
#170 = DATE_AND_TIME ( #185, #51 ) ;
#171 = ORIENTED_EDGE ( 'NONE', *, *, #180, .F. ) ;
#172 = VERTEX_POINT ( 'NONE', #2 ) ;
#173 = CC_DESIGN_DATE_AND_TIME_ASSIGNMENT ( #71, #183, ( #111 ) ) ;
#174 = AXIS2_PLACEMENT_3D ( 'NONE', #116, #135, #177 ) ;
#175 = VECTOR ( 'NONE', #39, 1000.000000000000000 ) ;
#176 = FACE_OUTER_BOUND ( 'NONE', #155, .T. ) ;
#177 = DIRECTION ( 'NONE',  ( 0.000000000000000000, 0.000000000000000000, 1.000000000000000000 ) ) ;
#178 = CIRCLE ( 'NONE', #115, 15.00000000000000000 ) ;
#179 = PLANE ( 'NONE',  #87 ) ;
#180 = EDGE_CURVE ( 'NONE', #46, #199, #134, .T. ) ;
#181 = PERSON_AND_ORGANIZATION ( #31, #5 ) ;
#182 = AXIS2_PLACEMENT_3D ( 'NONE', #10, #77, #63 ) ;
#183 = DATE_TIME_ROLE ( 'classification_date' ) ;
#184 = ORIENTED_EDGE ( 'NONE', *, *, #26, .F. ) ;
#185 = CALENDAR_DATE ( 2024, 9, 5 ) ;
#186 = EDGE_LOOP ( 'NONE', ( #43, #99, #144 ) ) ;
#187 = EDGE_CURVE ( 'NONE', #172, #79, #86, .T. ) ;
#188 = APPROVAL_PERSON_ORGANIZATION ( #93, #196, #152 ) ;
#189 = DIRECTION ( 'NONE',  ( -0.000000000000000000, 1.000000000000000000, -0.000000000000000000 ) ) ;
#190 = CARTESIAN_POINT ( 'NONE',  ( 0.000000000000000000, -78.74999833166459950, 0.01660348570795607687 ) ) ;
#191 = CC_DESIGN_APPROVAL ( #67, ( #133 ) ) ;
#192 = APPLICATION_PROTOCOL_DEFINITION ( 'international standard', 'config_control_design', 1994, #201 ) ;
#193 = ADVANCED_FACE ( 'NONE', ( #49 ), #105, .T. ) ;
#194 = PERSON_AND_ORGANIZATION ( #31, #5 ) ;
#195 = CIRCLE ( 'NONE', #123, 15.00000000000000000 ) ;
#196 = APPROVAL ( #124, 'Î´Ö¸¶¨' ) ;
#197 = DESIGN_CONTEXT ( 'detailed design', #78, 'design' ) ;
#198 = PERSON_AND_ORGANIZATION ( #31, #5 ) ;
#199 = VERTEX_POINT ( 'NONE', #66 ) ;
#200 = CIRCLE ( 'NONE', #28, 82.62000000000000455 ) ;
#201 = APPLICATION_CONTEXT ( 'configuration controlled 3d designs of mechanical parts and assemblies' ) ;
ENDSEC;
END-ISO-10303-21;
