ISO-10303-21;
HEADER;
FILE_DESCRIPTION (( 'STEP AP203' ),
    '1' );
FILE_NAME ('100565.STEP',
    '2024-05-09T06:17:59',
    ( '' ),
    ( '' ),
    'SwSTEP 2.0',
    'SolidWorks 2020',
    '' );
FILE_SCHEMA (( 'CONFIG_CONTROL_DESIGN' ));
ENDSEC;

DATA;
#1 = FACE_OUTER_BOUND ( 'NONE', #38, .T. ) ;
#2 = CARTESIAN_POINT ( 'NONE',  ( -1.203706215242022408E-32, -4.336808689942017736E-16, 0.000000000000000000 ) ) ;
#3 = APPROVAL_STATUS ( 'not_yet_approved' ) ;
#4 = DIRECTION ( 'NONE',  ( 1.000000000000000000, 0.000000000000000000, 0.000000000000000000 ) ) ;
#5 = COORDINATED_UNIVERSAL_TIME_OFFSET ( 8, 0, .AHEAD. ) ;
#6 =( GEOMETRIC_REPRESENTATION_CONTEXT ( 3 ) GLOBAL_UNCERTAINTY_ASSIGNED_CONTEXT ( ( #91 ) ) GLOBAL_UNIT_ASSIGNED_CONTEXT ( ( #143, #108, #165 ) ) REPRESENTATION_CONTEXT ( 'NONE', 'WORKASPACE' ) );
#7 = APPROVAL_DATE_TIME ( #109, #20 ) ;
#8 = CARTESIAN_POINT ( 'NONE',  ( -4.328338360469474733E-16, -18.94999904914677558, 0.000000000000000000 ) ) ;
#9 = CARTESIAN_POINT ( 'NONE',  ( 3.382701391713265759E-17, 1.479999999999999538, 0.000000000000000000 ) ) ;
#10 = PERSON_AND_ORGANIZATION ( #189, #29 ) ;
#11 = DIRECTION ( 'NONE',  ( -0.000000000000000000, 0.000000000000000000, -1.000000000000000000 ) ) ;
#12 = APPROVAL ( #172, 'Î´Ö¸¶¨' ) ;
#13 = PERSON_AND_ORGANIZATION ( #189, #29 ) ;
#14 = EDGE_CURVE ( 'NONE', #94, #155, #185, .T. ) ;
#15 = DIRECTION ( 'NONE',  ( 2.285609048454910113E-17, 1.000000000000000000, -0.000000000000000000 ) ) ;
#16 = PRODUCT_DEFINITION_SHAPE ( 'NONE', 'NONE',  #60 ) ;
#17 = DATE_AND_TIME ( #157, #36 ) ;
#18 = CARTESIAN_POINT ( 'NONE',  ( 0.006266596937432858047, -18.94999904914677558, 0.000000000000000000 ) ) ;
#19 = CARTESIAN_POINT ( 'NONE',  ( -3.000000000000000000, -3.651125975405544579E-16, 0.000000000000000000 ) ) ;
#20 = APPROVAL ( #3, 'Î´Ö¸¶¨' ) ;
#21 = PERSON_AND_ORGANIZATION_ROLE ( 'creator' ) ;
#22 = EDGE_LOOP ( 'NONE', ( #120, #154, #177 ) ) ;
#23 = DESIGN_CONTEXT ( 'detailed design', #137, 'design' ) ;
#24 = APPLICATION_PROTOCOL_DEFINITION ( 'international standard', 'config_control_design', 1994, #104 ) ;
#25 = ORIENTED_EDGE ( 'NONE', *, *, #166, .T. ) ;
#26 = PERSON_AND_ORGANIZATION ( #189, #29 ) ;
#27 = ORIENTED_EDGE ( 'NONE', *, *, #173, .F. ) ;
#28 = DIRECTION ( 'NONE',  ( -1.000000000000000000, 2.285609048454910421E-17, 0.000000000000000000 ) ) ;
#29 = ORGANIZATION ( 'Î´Ö¸¶¨', 'Î´Ö¸¶¨', '' ) ;
#30 = CC_DESIGN_DATE_AND_TIME_ASSIGNMENT ( #68, #52, ( #117 ) ) ;
#31 = APPROVAL_DATE_TIME ( #170, #12 ) ;
#32 = LOCAL_TIME ( 14, 17, 59.00000000000000000, #5 ) ;
#33 = SHAPE_DEFINITION_REPRESENTATION ( #16, #42 ) ;
#34 = ADVANCED_FACE ( 'NONE', ( #81 ), #110, .T. ) ;
#35 = CARTESIAN_POINT ( 'NONE',  ( 3.885535382373346945E-17, 1.699999999999999956, 0.000000000000000000 ) ) ;
#36 = LOCAL_TIME ( 14, 17, 59.00000000000000000, #85 ) ;
#37 = PERSON_AND_ORGANIZATION ( #189, #29 ) ;
#38 = EDGE_LOOP ( 'NONE', ( #198, #193, #71, #123 ) ) ;
#39 = DIRECTION ( 'NONE',  ( 0.000000000000000000, 0.000000000000000000, 1.000000000000000000 ) ) ;
#40 = CIRCLE ( 'NONE', #179, 20.64999999999999858 ) ;
#41 = PERSON_AND_ORGANIZATION_ROLE ( 'design_owner' ) ;
#42 = ADVANCED_BREP_SHAPE_REPRESENTATION ( '100565', ( #127, #53 ), #6 ) ;
#43 = APPROVAL_ROLE ( '' ) ;
#44 = ORIENTED_EDGE ( 'NONE', *, *, #56, .T. ) ;
#45 = ADVANCED_FACE ( 'NONE', ( #124 ), #87, .T. ) ;
#46 = EDGE_LOOP ( 'NONE', ( #27, #72 ) ) ;
#47 = CALENDAR_DATE ( 2024, 9, 5 ) ;
#48 = DIRECTION ( 'NONE',  ( 2.285609048454910113E-17, 1.000000000000000000, -0.000000000000000000 ) ) ;
#49 = CARTESIAN_POINT ( 'NONE',  ( -4.982197016295644743E-33, -2.179811555989266513E-16, 0.000000000000000000 ) ) ;
#50 = DIRECTION ( 'NONE',  ( -1.000000000000000000, 2.285609048454910421E-17, 0.000000000000000000 ) ) ;
#51 = AXIS2_PLACEMENT_3D ( 'NONE', #128, #192, #119 ) ;
#52 = DATE_TIME_ROLE ( 'classification_date' ) ;
#53 = AXIS2_PLACEMENT_3D ( 'NONE', #178, #39, #4 ) ;
#54 = CC_DESIGN_PERSON_AND_ORGANIZATION_ASSIGNMENT ( #37, #21, ( #60 ) ) ;
#55 = FACE_OUTER_BOUND ( 'NONE', #65, .T. ) ;
#56 = EDGE_CURVE ( 'NONE', #155, #94, #80, .T. ) ;
#57 = DIRECTION ( 'NONE',  ( 2.285609048454910113E-17, 1.000000000000000000, -0.000000000000000000 ) ) ;
#58 = ORIENTED_EDGE ( 'NONE', *, *, #84, .F. ) ;
#59 = AXIS2_PLACEMENT_3D ( 'NONE', #18, #11, #191 ) ;
#60 = PRODUCT_DEFINITION ( 'Î´Öª', '', #149, #23 ) ;
#61 = ORIENTED_EDGE ( 'NONE', *, *, #133, .F. ) ;
#62 = APPROVAL_PERSON_ORGANIZATION ( #13, #12, #113 ) ;
#63 = DIRECTION ( 'NONE',  ( 2.285609048454910113E-17, 1.000000000000000000, -0.000000000000000000 ) ) ;
#64 = PERSON_AND_ORGANIZATION_ROLE ( 'creator' ) ;
#65 = EDGE_LOOP ( 'NONE', ( #121, #167, #163, #61 ) ) ;
#66 = CARTESIAN_POINT ( 'NONE',  ( -1.203706215242022408E-32, -4.336808689942017736E-16, 0.000000000000000000 ) ) ;
#67 = CC_DESIGN_APPROVAL ( #194, ( #117 ) ) ;
#68 = DATE_AND_TIME ( #197, #188 ) ;
#69 = CARTESIAN_POINT ( 'NONE',  ( -0.006266596937433723674, -18.94999904914677558, -7.674367880974286549E-19 ) ) ;
#70 = CLOSED_SHELL ( 'NONE', ( #153, #45, #148, #34, #115 ) ) ;
#71 = ORIENTED_EDGE ( 'NONE', *, *, #133, .T. ) ;
#72 = ORIENTED_EDGE ( 'NONE', *, *, #201, .F. ) ;
#73 = CALENDAR_DATE ( 2024, 9, 5 ) ;
#74 = LOCAL_TIME ( 14, 17, 59.00000000000000000, #98 ) ;
#75 = EDGE_CURVE ( 'NONE', #183, #94, #139, .T. ) ;
#76 = DIRECTION ( 'NONE',  ( 1.000000000000000000, -2.285609048454910113E-17, 0.000000000000000000 ) ) ;
#77 = DATE_AND_TIME ( #135, #136 ) ;
#78 = DIRECTION ( 'NONE',  ( 2.285609048454910113E-17, 1.000000000000000000, -0.000000000000000000 ) ) ;
#79 = PERSON_AND_ORGANIZATION_ROLE ( 'classification_officer' ) ;
#80 = CIRCLE ( 'NONE', #190, 3.000000000000000000 ) ;
#81 = FACE_OUTER_BOUND ( 'NONE', #46, .T. ) ;
#82 = CYLINDRICAL_SURFACE ( 'NONE', #196, 3.000000000000000000 ) ;
#83 = VERTEX_POINT ( 'NONE', #100 ) ;
#84 = EDGE_CURVE ( 'NONE', #155, #83, #122, .T. ) ;
#85 = COORDINATED_UNIVERSAL_TIME_OFFSET ( 8, 0, .AHEAD. ) ;
#86 = DIRECTION ( 'NONE',  ( 2.285609048454910113E-17, 1.000000000000000000, -0.000000000000000000 ) ) ;
#87 = TOROIDAL_SURFACE ( 'NONE', #164, -0.006266596937433290861, 20.64999999999999858 ) ;
#88 = CYLINDRICAL_SURFACE ( 'NONE', #51, 3.000000000000000000 ) ;
#89 = DIRECTION ( 'NONE',  ( -1.000000000000000000, 2.285609048454910421E-17, 0.000000000000000000 ) ) ;
#90 = COORDINATED_UNIVERSAL_TIME_OFFSET ( 8, 0, .AHEAD. ) ;
#91 = UNCERTAINTY_MEASURE_WITH_UNIT (LENGTH_MEASURE( 1.000000000000000082E-05 ), #143, 'distance_accuracy_value', 'NONE');
#92 = APPLICATION_PROTOCOL_DEFINITION ( 'international standard', 'config_control_design', 1994, #137 ) ;
#93 = PERSON_AND_ORGANIZATION_ROLE ( 'design_supplier' ) ;
#94 = VERTEX_POINT ( 'NONE', #118 ) ;
#95 = CARTESIAN_POINT ( 'NONE',  ( 3.000000000000000000, -5.022491404478490400E-16, 3.673940397442059868E-16 ) ) ;
#96 = CIRCLE ( 'NONE', #152, 3.000000000000000000 ) ;
#97 = CC_DESIGN_PERSON_AND_ORGANIZATION_ASSIGNMENT ( #168, #64, ( #149 ) ) ;
#98 = COORDINATED_UNIVERSAL_TIME_OFFSET ( 8, 0, .AHEAD. ) ;
#99 = CC_DESIGN_PERSON_AND_ORGANIZATION_ASSIGNMENT ( #180, #41, ( #147 ) ) ;
#100 = CARTESIAN_POINT ( 'NONE',  ( 3.885535382373346945E-17, 1.699999999999999956, 0.000000000000000000 ) ) ;
#101 = APPROVAL_ROLE ( '' ) ;
#102 = AXIS2_PLACEMENT_3D ( 'NONE', #49, #169, #76 ) ;
#103 = PERSON_AND_ORGANIZATION ( #189, #29 ) ;
#104 = APPLICATION_CONTEXT ( 'configuration controlled 3d designs of mechanical parts and assemblies' ) ;
#105 = CIRCLE ( 'NONE', #160, 3.000000000000000000 ) ;
#106 = DIRECTION ( 'NONE',  ( 2.285609048454910113E-17, 1.000000000000000000, -0.000000000000000000 ) ) ;
#107 = AXIS2_PLACEMENT_3D ( 'NONE', #162, #86, #89 ) ;
#108 =( NAMED_UNIT ( * ) PLANE_ANGLE_UNIT ( ) SI_UNIT ( $, .RADIAN. ) );
#109 = DATE_AND_TIME ( #73, #32 ) ;
#110 = PLANE ( 'NONE',  #102 ) ;
#111 = CARTESIAN_POINT ( 'NONE',  ( 3.000000000000000000, 1.699999999999999956, 3.673940397442059868E-16 ) ) ;
#112 = DATE_TIME_ROLE ( 'creation_date' ) ;
#113 = APPROVAL_ROLE ( '' ) ;
#114 = APPROVAL_PERSON_ORGANIZATION ( #151, #20, #43 ) ;
#115 = ADVANCED_FACE ( 'NONE', ( #1 ), #82, .T. ) ;
#116 = DIRECTION ( 'NONE',  ( -1.000000000000000000, 0.000000000000000000, 0.000000000000000000 ) ) ;
#117 = SECURITY_CLASSIFICATION ( '', '', #125 ) ;
#118 = CARTESIAN_POINT ( 'NONE',  ( 3.000000000000002665, 1.479999999999999094, 3.673940397442062826E-16 ) ) ;
#119 = DIRECTION ( 'NONE',  ( -1.000000000000000000, 0.000000000000000000, 0.000000000000000000 ) ) ;
#120 = ORIENTED_EDGE ( 'NONE', *, *, #166, .F. ) ;
#121 = ORIENTED_EDGE ( 'NONE', *, *, #173, .T. ) ;
#122 = CIRCLE ( 'NONE', #59, 20.64999999999999858 ) ;
#123 = ORIENTED_EDGE ( 'NONE', *, *, #14, .F. ) ;
#124 = FACE_OUTER_BOUND ( 'NONE', #150, .T. ) ;
#125 = SECURITY_CLASSIFICATION_LEVEL ( 'unclassified' ) ;
#126 = DIRECTION ( 'NONE',  ( 2.285609048454910113E-17, 1.000000000000000000, -0.000000000000000000 ) ) ;
#127 = MANIFOLD_SOLID_BREP ( 'Ðý×ª1', #70 ) ;
#128 = CARTESIAN_POINT ( 'NONE',  ( 3.885535382373346945E-17, 1.699999999999999956, 0.000000000000000000 ) ) ;
#129 = APPROVAL_PERSON_ORGANIZATION ( #103, #194, #101 ) ;
#130 = APPROVAL_DATE_TIME ( #17, #194 ) ;
#131 = VECTOR ( 'NONE', #199, 1000.000000000000000 ) ;
#132 = FACE_OUTER_BOUND ( 'NONE', #22, .T. ) ;
#133 = EDGE_CURVE ( 'NONE', #138, #155, #142, .T. ) ;
#134 = DIRECTION ( 'NONE',  ( 1.000000000000000000, 0.000000000000000000, 1.224646799147353207E-16 ) ) ;
#135 = CALENDAR_DATE ( 2024, 9, 5 ) ;
#136 = LOCAL_TIME ( 14, 17, 59.00000000000000000, #90 ) ;
#137 = APPLICATION_CONTEXT ( 'configuration controlled 3d designs of mechanical parts and assemblies' ) ;
#138 = VERTEX_POINT ( 'NONE', #19 ) ;
#139 = LINE ( 'NONE', #111, #156 ) ;
#140 = COORDINATED_UNIVERSAL_TIME_OFFSET ( 8, 0, .AHEAD. ) ;
#141 = TOROIDAL_SURFACE ( 'NONE', #107, -0.006266596937433290861, 20.64999999999999858 ) ;
#142 = LINE ( 'NONE', #200, #131 ) ;
#143 =( LENGTH_UNIT ( ) NAMED_UNIT ( * ) SI_UNIT ( .MILLI., .METRE. ) );
#144 = CARTESIAN_POINT ( 'NONE',  ( -3.000000000000002220, 1.479999999999999094, 0.000000000000000000 ) ) ;
#145 = CC_DESIGN_APPROVAL ( #20, ( #60 ) ) ;
#146 = CC_DESIGN_PERSON_AND_ORGANIZATION_ASSIGNMENT ( #10, #79, ( #117 ) ) ;
#147 = PRODUCT ( '100565', '100565', '', ( #182 ) ) ;
#148 = ADVANCED_FACE ( 'NONE', ( #132 ), #141, .T. ) ;
#149 = PRODUCT_DEFINITION_FORMATION_WITH_SPECIFIED_SOURCE ( 'ÈÎºÎ', '', #147, .NOT_KNOWN. ) ;
#150 = EDGE_LOOP ( 'NONE', ( #44, #25, #58 ) ) ;
#151 = PERSON_AND_ORGANIZATION ( #189, #29 ) ;
#152 = AXIS2_PLACEMENT_3D ( 'NONE', #2, #57, #28 ) ;
#153 = ADVANCED_FACE ( 'NONE', ( #55 ), #88, .T. ) ;
#154 = ORIENTED_EDGE ( 'NONE', *, *, #14, .T. ) ;
#155 = VERTEX_POINT ( 'NONE', #144 ) ;
#156 = VECTOR ( 'NONE', #15, 1000.000000000000000 ) ;
#157 = CALENDAR_DATE ( 2024, 9, 5 ) ;
#158 = APPROVAL_STATUS ( 'not_yet_approved' ) ;
#159 = CC_DESIGN_DATE_AND_TIME_ASSIGNMENT ( #77, #112, ( #60 ) ) ;
#160 = AXIS2_PLACEMENT_3D ( 'NONE', #66, #126, #50 ) ;
#161 = PRODUCT_RELATED_PRODUCT_CATEGORY ( 'detail', '', ( #147 ) ) ;
#162 = CARTESIAN_POINT ( 'NONE',  ( -4.328338360469474733E-16, -18.94999904914677558, 0.000000000000000000 ) ) ;
#163 = ORIENTED_EDGE ( 'NONE', *, *, #56, .F. ) ;
#164 = AXIS2_PLACEMENT_3D ( 'NONE', #8, #78, #186 ) ;
#165 =( NAMED_UNIT ( * ) SI_UNIT ( $, .STERADIAN. ) SOLID_ANGLE_UNIT ( ) );
#166 = EDGE_CURVE ( 'NONE', #94, #83, #40, .T. ) ;
#167 = ORIENTED_EDGE ( 'NONE', *, *, #75, .T. ) ;
#168 = PERSON_AND_ORGANIZATION ( #189, #29 ) ;
#169 = DIRECTION ( 'NONE',  ( -2.285609048454910113E-17, -1.000000000000000000, 0.000000000000000000 ) ) ;
#170 = DATE_AND_TIME ( #47, #74 ) ;
#171 = AXIS2_PLACEMENT_3D ( 'NONE', #9, #63, #187 ) ;
#172 = APPROVAL_STATUS ( 'not_yet_approved' ) ;
#173 = EDGE_CURVE ( 'NONE', #138, #183, #96, .T. ) ;
#174 = CC_DESIGN_APPROVAL ( #12, ( #149 ) ) ;
#175 = DIRECTION ( 'NONE',  ( -1.224646799147353207E-16, 2.799063805292533257E-33, 1.000000000000000000 ) ) ;
#176 = CC_DESIGN_SECURITY_CLASSIFICATION ( #117, ( #149 ) ) ;
#177 = ORIENTED_EDGE ( 'NONE', *, *, #84, .T. ) ;
#178 = CARTESIAN_POINT ( 'NONE',  ( 0.000000000000000000, 0.000000000000000000, 0.000000000000000000 ) ) ;
#179 = AXIS2_PLACEMENT_3D ( 'NONE', #69, #175, #134 ) ;
#180 = PERSON_AND_ORGANIZATION ( #189, #29 ) ;
#181 = CC_DESIGN_PERSON_AND_ORGANIZATION_ASSIGNMENT ( #26, #93, ( #149 ) ) ;
#182 = MECHANICAL_CONTEXT ( 'NONE', #104, 'mechanical' ) ;
#183 = VERTEX_POINT ( 'NONE', #95 ) ;
#184 = DIRECTION ( 'NONE',  ( -1.000000000000000000, 0.000000000000000000, 0.000000000000000000 ) ) ;
#185 = CIRCLE ( 'NONE', #171, 3.000000000000000000 ) ;
#186 = DIRECTION ( 'NONE',  ( -1.000000000000000000, 2.285609048454910421E-17, 0.000000000000000000 ) ) ;
#187 = DIRECTION ( 'NONE',  ( -1.000000000000000000, 0.000000000000000000, 0.000000000000000000 ) ) ;
#188 = LOCAL_TIME ( 14, 17, 59.00000000000000000, #140 ) ;
#189 = PERSON ( 'Î´Ö¸¶¨', 'Î´Ö¸¶¨', 'Î´Ö¸¶¨', ('Î´Ö¸¶¨'), ('Î´Ö¸¶¨'), ('Î´Ö¸¶¨') ) ;
#190 = AXIS2_PLACEMENT_3D ( 'NONE', #195, #48, #184 ) ;
#191 = DIRECTION ( 'NONE',  ( -1.000000000000000000, 0.000000000000000000, 0.000000000000000000 ) ) ;
#192 = DIRECTION ( 'NONE',  ( 2.285609048454910113E-17, 1.000000000000000000, -0.000000000000000000 ) ) ;
#193 = ORIENTED_EDGE ( 'NONE', *, *, #201, .T. ) ;
#194 = APPROVAL ( #158, 'Î´Ö¸¶¨' ) ;
#195 = CARTESIAN_POINT ( 'NONE',  ( 3.382701391713265759E-17, 1.479999999999999538, 0.000000000000000000 ) ) ;
#196 = AXIS2_PLACEMENT_3D ( 'NONE', #35, #106, #116 ) ;
#197 = CALENDAR_DATE ( 2024, 9, 5 ) ;
#198 = ORIENTED_EDGE ( 'NONE', *, *, #75, .F. ) ;
#199 = DIRECTION ( 'NONE',  ( 2.285609048454910113E-17, 1.000000000000000000, -0.000000000000000000 ) ) ;
#200 = CARTESIAN_POINT ( 'NONE',  ( -3.000000000000000000, 1.699999999999999956, 0.000000000000000000 ) ) ;
#201 = EDGE_CURVE ( 'NONE', #183, #138, #105, .T. ) ;
ENDSEC;
END-ISO-10303-21;
